Naruto Sad

(/) Slide Up  (\) Slide Down  (h) Hammer On  (p) Pull Off  (b) Bend (r) Release (v) Vibrato


E|---------------------------------------------
B|---------------------------------------------
G|---------------------------------------------
D|------------------------------------------2--
A|--2------------------------3--1--3--1--------
E|-----3--10--8--6--5--1--3--------------2-----


E|---------------------------------------------
B|---------------------------------------------
G|---------------------------------------------
D|---------------------------------------------
A|--2------------------------------------------
E|-----3--10--8--6--5--1--3--5--6--------------

Naruto Sad - By Sahil(Avalanche)
Guitar Tab Creator is intended to store guitar tab created through the tool. It currently does not support in-line text editing. Any text you place in here will be lost. If you need to comment on your tab, please use the "Tab Notes" section located below.