1st custom tab

(/) Slide Up  (\) Slide Down  (h) Hammer On  (p) Pull Off  (b) Bend (r) Release (v) Vibrato
E|-----------------------------------------------------------------------------------------------
B|-----------------------------------------------------------------------------------------------
G|-----------------------------------------------------------------------------------------------
D|---------12--10--7-----9-------------12--10--7-----9----------------12--10--7-----9------------
A|-----10-------------7-----10-----10-------------7-----10--7-----10-------------7-----10--------
E|--8---------------------------8------------------------------8---------------------------8-----



E|------------------------12----10----8-----
B|------------------------12----10----8-----
G|------------------------12----10----9-----
D|------12--10--7---------12----10----10----
A|--10-------------7--10--10----8-----10----
E|------------------------8-----8-----8-----
http://www.guitartabcreator.com
Guitar Tab Creator is intended to store guitar tab created through the tool. It currently does not support in-line text editing. Any text you place in here will be lost. If you need to comment on your tab, please use the "Tab Notes" section located below.