Peaches En Regalia Synth Solo Arranged for Guitar

(/) Slide Up  (\) Slide Down  (h) Hammer On  (p) Pull Off  (b) Bend (r) Release (v) Vibrato

E|--------------------------
B|--------------------------
G|-----5--------------------
D|--5-----5--3--2-----5--2--
A|-----------------3--------
E|--------------------------



E|--------------------2--5--
B|--------------3-----------
G|--------2--------2--------
D|--4--------4--------------
A|-----5--------------------
E|--------------------------



E|--3-----------------------
B|-----3-----------------3--
G|--------2-----------2-----
D|-----------3--2--3--------
A|--------------------------
E|--------------------------



E|--1-----------------------
B|-----1-----------------4--
G|--------0-----------3-----
D|-----------1--0--1--------
A|--------------------------
E|--------------------------



E|--------1-----3--1--3--4--
B|--3--3-----4--------------
G|--------------------------
D|--------------------------
A|--------------------------
E|--------------------------



E|--3--1-----1--------------|-----
B|--------1--------------1--|-----
G|--------------2--2--------|--0--
D|--------------------3-----|-----
A|--------------------------|-----
E|--------------------------|-----
http://www.guitartabcreator.com
Guitar Tab Creator is intended to store guitar tab created through the tool. It currently does not support in-line text editing. Any text you place in here will be lost. If you need to comment on your tab, please use the "Tab Notes" section located below.