pezzo due

(/) Slide Up  (\) Slide Down  (h) Hammer On  (p) Pull Off  (b) Bend (r) Release (v) Vibrato
E|---------|-----------------|-----------------|-----------------|---------|-----------------|---
B|-------0-|-----------------|---------------0-|-----------------|---------|-----5-----5-----|---
G|---------|-5---------------|-----------------|-5---------------|---------|---6-----6-----6-|---
D|---6-----|-----6---6---6---|-6---6-----6-----|-----6---6---6---|-6---6---|-0-----0-----0---|---
A|-7---7---|---0---0---0---0-|---0---0-7---7---|---0---0---0---0-|---0---0-|-----------------|---
E|---------|-----------------|-----------------|-----------------|---------|-----------------|---



E|--------------------------|--------------------------|--------------------------|-----------------
B|--------5--------5--------|--------5--------5--------|--------5--------------0--|-----------------
G|-----5--------5--------5--|-----6--------6--------6--|-----5--------------------|--5--------------
D|--0--------0--------0-----|--0--------0--------0-----|--0--------0-----6--------|--------6--------
A|--------------------------|--------------------------|--------------7-----7-----|-----0-----0-----
E|--------------------------|--------------------------|--------------------------|-----------------



E|--------------|--------------------------|--------------------------|--------------|-----
B|--------------|-----------------------0--|--------------------------|--------------|-----
G|--------------|--------------------------|--5-----------------------|--------------|-----
D|--6-----6-----|--6-----6--------6--------|--------6-----6-----6-----|--6-----6-----|-----
A|-----0-----0--|-----0-----0--7-----7-----|-----0-----0-----0-----0--|-----0-----0--|-----
E|--------------|--------------------------|--------------------------|--------------|-----



E|--------------------------|--------------------------|--------------------------|--------------
B|--------5--------5--------|--------5--------5--------|--------5--------5--------|--------5-----
G|-----6--------6--------6--|-----5--------5--------5--|-----6--------6--------6--|-----5--------
D|--0--------0--------0-----|--0--------0--------0-----|--0--------0--------0-----|--0--------0--
A|--------------------------|--------------------------|--------------------------|--------------
E|--------------------------|--------------------------|--------------------------|--------------



E|--------------|-----------------------------------------------------------------|--0--0-----
B|-----5-----5--|--------5--------6--------6--------5--------5--------6--------6--|--5--0-----
G|--5-----5-----|-----5--------5--------5--------5--------5--------5--------5-----|--6--5-----
D|--------------|-----------------------------------------------------------------|--5--5-----
A|--------------|--0--------0--------0--------0--------0--------0--------0--------|--0--0-----
E|--------------|-----------------------------------------------------------------|-----------



E|-----------0-----------|--0--------0--|--0--------0--|--0--------0----0--------|-----
B|--------0-----0--------|--0--------0--|--0--------0--|--8--------8----0--------|-----
G|-----5-----------5-----|--5--------7--|--5--------7--|--7--------9----7--------|-----
D|--5-----------------5--|--5--------7--|--5--------7--|--7--------7----7--------|-----
A|-----------------------|--------------|--------------|-------------------------|-----
E|-----------------------|--------------|--------------|-------------------------|-----



E|--0----0----0----0--|--------------|--------------------------|--------------------------|--
B|--8----8----0----0--|-----------0--|--------------------------|-----------------------0--|--
G|--7----9----5----4--|--------------|--6-----------------------|--------------------------|--
D|--7----7----5----4--|-----7--------|--------7-----7-----7-----|--7-----7--------7--------|--
A|--------------------|--8-----8-----|-----0-----0-----0-----0--|-----0-----0--8-----8-----|--
E|--------------------|--------------|--------------------------|--------------------------|--



E|--------------------------|-----0--------------------0--|--
B|--------------------------|--0-----0--------------0--0--|--
G|--6-----------------------|--------------------------6--|--
D|--------7-----7-----7-----|-----------7-----7--------7--|--
A|-----0-----0-----0-----0--|--------------8-----8-----0--|--
E|--------------------------|-----------------------------|--



E|--------------------0----|--------------------0----|--------------------------------------0--|--
B|--------6--------6-------|--------6--------6-------|--------6--------6--------6--------6--6--|--
G|-----7--------7----------|-----7--------7----------|-----6--------6--------6--------6-----6--|--
D|--0--------0-------------|--0--------0-------------|--7--------7--------7--------7--------7--|--
A|-------------------------|-------------------------|-----------------------------------------|--
E|-------------------------|-------------------------|-----------------------------------------|--



E|--------------------0----|--------------------0----|--------------------------------------0----|--
B|--------6--------6-------|--------6--------6-------|--------6--------6--------6--------6--6----|--
G|-----7--------7----------|-----7--------7----------|-----6--------6--------6--------6-----6----|--
D|--0--------0-------------|--0--------0-------------|--7--------7--------7--------7--------7----|--
A|-------------------------|-------------------------|-------------------------------------------|--
E|-------------------------|-------------------------|-------------------------------------------|--



E|--0------0----0----0--0--|--0----0------0----0--0--|--0------0------0------0--|-----
B|--6------6----0----0--0--|--6----6------0----0--0--|--0------0------0------0--|-----
G|--7------6----6----5--5--|--7----6------6----5--5--|--5------7------5------7--|-----
D|--0------7----6----5--6--|--0----7------6----5--6--|--5------7------5------7--|-----
A|-------------------------|-------------------------|--------------------------|-----
E|-------------------------|-------------------------|--------------------------|-----



E|--0--0------3------0--7--|--0--0--3------0--7--|--0----0----|--------------|--------------
B|--0--3------0------0--0--|--0--3--0------0--0--|--0----0----|-----------0--|--------------
G|--5--5------5------7--7--|--5--5--5------7--7--|--5----7----|--------------|--6-----------
D|--5--5------5------7--7--|--5--5--5------7--7--|--5----7----|-----7--------|--------7-----
A|-------------------------|---------------------|------------|--8-----8-----|-----0-----0--
E|-------------------------|---------------------|------------|--------------|--------------



E|--------------|--------------------------|--------------------------|-----0-----0-----------------
B|--------------|-----------------------0--|--------------------------|--0-----0--------------0-----
G|--------------|--------------------------|--6-----------------------|-----------------------------
D|--7-----7-----|--7-----7--------7--------|--------7-----7-----7-----|-----------------7-----------
A|-----0-----0--|-----0-----0--8-----8-----|-----0-----0-----0-----0--|--------------8-----8--------
E|--------------|--------------------------|--------------------------|-----------------------------



E|--0--
B|--0--
G|--6--
D|--7--
A|--0--
E|-----
http://www.guitartabcreator.com
Guitar Tab Creator is intended to store guitar tab created through the tool. It currently does not support in-line text editing. Any text you place in here will be lost. If you need to comment on your tab, please use the "Tab Notes" section located below.