Holiday Unheard Of - And His Face Lit Up Blue

(/) Slide Up  (\) Slide Down  (h) Hammer On  (p) Pull Off  (b) Bend (r) Release (v) Vibrato
E|-----------------------------------------------------------------
B|-------------3---------------3---------------3---------------3---
G|-----7-----0---0-----7-----0---0-----7-----0---0-----7-----0---0-
D|---5---5-5---------5---5-5---------5---5-5---------5---5-5-------
A|-7---------------7---------------7---------------7---------------
E|-----------------------------------------------------------------



E|----------------------------------------------------------------
B|----------------------------------------------------------------
G|---------------5-5-5-5-5-5-5-9-9-9-9-9-9-9-10-10-10-10-10-10-10-
D|-7-7-7-7-7-7-7-5-5-5-5-5-5-5-9-9-9-9-9-9-9-10-10-10-10-10-10-10-
A|-7-7-7-7-7-7-7-3-3-3-3-3-3-3-7-7-7-7-7-7-7-8--8--8--8--8--8--8--
E|-5-5-5-5-5-5-5--------------------------------------------------



E|----3---2----------------------10-11/12-------------------------
B|------5---3-5--3/5-0--------------------11/12-10v---------------
G|-----------------------9-7v-------------------------9v----------
D|-12\-----------------7------------------------------------------
A|-12-------------------------------------------------------------
E|-12-------------------------------------------------------------



E|-------------10b---15----------------------------15----17b------
B|---------8-7----------19-15\10/12---10----15v-------19----------
G|-----7h9-------------------------------14-----------------------
D|-7h9------------------------------------------------------------
A|----------------------------------------------------------------
E|----------------------------------------------------------------



E|------------------------------------------------------------------
B|------------------------------------------------------------------
G|--------0h12-----0h11/12------0h9\7--------------0h9--------------
D|------------------------------------------------------------------
A|-0h7h14------0h7---------0h14-------0h5------0h5-----0h10h12------
E|----------------------------------------0h10-----------------0h10-



E|-----------------------------------------------------------------
B|-----------------------------------------------------------------
G|--------0h12-----0h11/12------0h9\7----0----0h9------------------
D|-----------------------------------------------------------------
A|-0h7h14------0h7---------0h14-------------------0h10h12----------
E|------------------------------------10---10-------------0h10-----



E|-3-0-3-0-3-0-3-0-3-0-3-0-3-0-3-0-2-0-2-0-2-0-5-0-5-0-5-0-5-0-----
B|-----------------------------------------------------------------
G|-----------------------------------------------------------------
D|-----------------------------------------------------------------
A|-----------------------------------------------------------------
E|-----------------------------------------------------------------



E|-------------------------------------------------10\-------------
B|-8-5-8-5-8-5-8-5-8-5-8-5-8-5-8-5-7-5-7-5-7-5-7-5-----------------
G|-----------------------------------------------------------------
D|-----------------------------------------------------------------
A|-----------------------------------------------------------------
E|-----------------------------------------------------------------



E|-15-15-14-15p14-------------------------------------15-14-------
B|----------------15-12--15/17----15--10/12--12-12-12-------15----
G|-----------------------------19---------------------------------
D|----------------------------------------------------------------
A|----------------------------------------------------------------
E|----------------------------------------------------------------



E|----------15-14----15-14-15-15-14-15-15-14-15-------------------
B|-12-12-12-------15----------------------------------------------
G|----------------------------------------------------------------
D|----------------------------------------------------------------
A|----------------------------------------------------------------
E|----------------------------------------------------------------



E|-20----18-----------------------------------------------------
B|-------------19-----20--19-20-19-20---------------------------
G|-------------------------------------19----21-----------------
D|-------------------------------------------------19-----------
A|--------------------------------------------------------------
E|--------------------------------------------------------------



E|-20----18--------------------------------------------------------------
B|-------------19----20--19-20-19-20--15----17---------------------------
G|------------------------------------------------14---12--12-14-12------
D|------------------------------------------------------------------12---
A|-----------------------------------------------------------------------
E|-----------------------------------------------------------------------



E|-20----18-----------------------------------------------------
B|-------------19----20--19-20-19-20--15----17------------------
G|------------------------------------------------14------------
D|--------------------------------------------------------------
A|--------------------------------------------------------------
E|--------------------------------------------------------------



E|-------------3-3-2h3p2-0-2-3-3-3-2h3p2-0-2-3-3-3-2h3p2-0-2-3-3-3-2h3p2-0-2-3-
B|-----------------------------------------------------------------------------
G|-----------------------------------------------------------------------------
D|-5-5-5-5-5-5-----------------------------------------------------------------
A|-5-5-5-5-5-5-----------------------------------------------------------------
E|-3-3-3-3-3-3-----------------------------------------------------------------



E|-------------3-3-2h3p2-0-2-3-3-3-2h3p2-0-2-3-3-3-2h3p2-0-2-3-3-3-2h3p2-0-2-3-
B|-----------------------------------------------------------------------------
G|-----------------------------------------------------------------------------
D|-4-4-4-4-4-4-----------------------------------------------------------------
A|-4-4-4-4-4-4-----------------------------------------------------------------
E|-2-2-2-2-2-2-----------------------------------------------------------------



E|-------------3-3-2h3p2-0-2-3-3-3-2h3p2-0-2-3-3-3-2h3p2-0-2-3-3-3-2h3p2-0-2-3-
B|-----------------------------------------------------------------------------
G|-----------------------------------------------------------------------------
D|-5-5-5-5-5-5-----------------------------------------------------------------
A|-5-5-5-5-5-5-----------------------------------------------------------------
E|-3-3-3-3-3-3-----------------------------------------------------------------



E|-------------3-3-2h3p2-0-2-3-3-3-2h3p2-0-2-3-3-3-2h3p2-0-2-3-3-3-2h3p2-
B|-----------------------------------------------------------------------
G|-----------------------------------------------------------------------
D|-4-4-4-4-4-4-----------------------------------------------------------
A|-4-4-4-4-4-4-----------------------------------------------------------
E|-2-2-2-2-2-2-----------------------------------------------------------



E|------------------------
B|------------------------
G|------------------------
D|-4-4-4-4-4-4-----4-4--4-
A|-4-4-4-4-4-4-----4-4--4-
E|-2-2-2-2-2-2-----2-2--2-



E|-----------------------------------------------3-3-------3-3---------------------
B|-------3-3-------3-3-------3-3-------3-3-------5-5-------5-5-------3-3-------3-3-
G|-------4-4-------4-4-------2-2-------2-2---------------------------4-4-------4-4-
D|---------------------------------------------------------------------------------
A|---------------------------------------------------------------------------------
E|-2-2-2-----2-2-2-----2-2-2-----2-2-2-----5-5-5-----5-5-5-----2-2-2-----2-2-2-----



E|--------------10----------------------------------------------------------------------------------
B|--------7---------7---------------------10------------------------------------------------7-------
G|-----7-----7---------7-----------9----------9--------------7------12--7-------------6--------6----
D|--9--------------------------11-----11---------7-------11-----11---------7-------9-----9--------9-
A|--------------------------9-------------------------9-------------------------7-------------------
E|--------------------------------------------------------------------------------------------------
http://www.guitartabcreator.com
Guitar Tab Creator is intended to store guitar tab created through the tool. It currently does not support in-line text editing. Any text you place in here will be lost. If you need to comment on your tab, please use the "Tab Notes" section located below.