It's all you know 3

(/) Slide Up  (\) Slide Down  (h) Hammer On  (p) Pull Off  (b) Bend (r) Release (v) Vibrato


E|-----------------------------------------------------------------------
B|-----------------------------------------------------------------------
G|-----------------------------------------------------------------------
D|-----------------------------------------------------------------------
A|-------3-------3-------3---------------3-----------3-----------5-------
E|-0-3-5---0-3-5---0-3-5---0-3-5-0h3h5h7---5-3-0-3-5---5-3-0-3-5---5-3-5-



E|---------------------|-------------------------|----------------------------------------
B|---------------------|-------------------------|----------------------------------------
G|---------------------|-------------------------|----------------------------------------
D|---------------------|-------------------------|----------------------------------------
A|---------------------|----------------------12-|----------------------------------------
E|-0-13-12-0-12-0-0-12-|-0-13-12-0-12-0-12-13----|-13-12-0-12-0-0-12-0-13-12-0-12-0-10-10-
http://www.guitartabcreator.com
Guitar Tab Creator is intended to store guitar tab created through the tool. It currently does not support in-line text editing. Any text you place in here will be lost. If you need to comment on your tab, please use the "Tab Notes" section located below.