It's all you know 2

(/) Slide Up  (\) Slide Down  (h) Hammer On  (p) Pull Off  (b) Bend (r) Release (v) Vibrato
E|----------0----0-------------------------------------------0--
B|----------3-------3------------6-----------6----5----------3--
G|--3--2----2----------2---------7--------7-------5----------2--
D|--3--3----0-------------0------8-----8----------5----------0--
A|--1--1----0--------------------5--5-------------3----------0--
E|--1--1----0--------------------5----------------3----------0--



E|--------------------|--------------------------------------------
B|--------------------|--------------------------------------------
G|--------------------|--------------------------------------------
D|------10--------9---|------10----12-10---------9----12-9---------
A|---12--------10-----|---12----12-------12---10---10------9-10-12-
E|-0---------0--------|-0-------------------0----------------------



E|------------------------------------0--0-----------------------
B|------------------------------------3--3-----------------------
G|--3--3--3--2--2--2--2h3-------------2--2-----------------------
D|--3--3--3--3--3--3--3------0--------0--0-----------------------
A|--1--1--1--1--1--1--1------0--------0--------------3-----------
E|--1--1--1--1--1--1--1------0--0--0--0-----0--3--5-----5--3--0--



E|------------------------------------0--------------------------
B|--6--6--6--6--5--5--5---------------3--3-----------------------
G|--7--7--7--7--5--5--5---------------2--2-----------------------
D|--8--8--8--8--5--5--5------0--------0--0-----------------------
A|--5--5--5--5--3--3--3------0--0--0--0--0-----------3-----------
E|--5--5--5--5--3--3--3------0--0--0--0--0--0--3--5-----5--3--0--



E|--------------------------------
B|--------------------------------
G|--------------------------------
D|--------------------------------
A|-----------3-----------3--------
E|--0--3--5-----0--3--5-----------
http://www.guitartabcreator.com
Guitar Tab Creator is intended to store guitar tab created through the tool. It currently does not support in-line text editing. Any text you place in here will be lost. If you need to comment on your tab, please use the "Tab Notes" section located below.