It's all you know

(/) Slide Up  (\) Slide Down  (h) Hammer On  (p) Pull Off  (b) Bend (r) Release (v) Vibrato
E|----------------------------------------------------------------------
B|----------------------------------------------------------------------
G|----------------------------------------------------------------------
D|---------10-------------10-------------9------12------9---------------
A|-----12------12-----12------12-----10-----10------10-----10--9h10h12--
E|--0--------------0--------------0-------------------------------------



E|-----------------------------------------------------------------------------
B|-----------------------------------------------------------------------------
G|-----------------------------------------------------------------------------
D|-----------------------------------------------------------------------------
A|-----17-----19-----15-----15-----15h17-----17-----20-----19-----15-----10p8--
E|--0------0------0------0------0---------0------0------0------0------0--------



E|------------------------------------------------------------------------
B|------------------------------------------------------------------------
G|------------------------------------------------------------------------
D|------------------------------------------------------------------------
A|-----17-----19-----15-----15-----15h17-----13-----12--9--9--9--9h10h12--
E|--0------0------0------0------0---------0------0------------------------



E|-------------------------------------------------------------------------------------------
B|-------------------------------------------------------------------------------------------
G|-------------------------------------------------------------------------------------------
D|-------------------------------------------------------------------------------------------
A|---5---7---3---3---3h5---5---8---7---3---------5---7---3---3---3p5---13---12-9-9-9-9-10-12-
E|-0---0---0---0---0-----0---0---0---0---0-5p3-0---0---0---0---0-----0----0------------------
http://www.guitartabcreator.com
Guitar Tab Creator is intended to store guitar tab created through the tool. It currently does not support in-line text editing. Any text you place in here will be lost. If you need to comment on your tab, please use the "Tab Notes" section located below.