For Cords

(/) Slide Up  (\) Slide Down  (h) Hammer On  (p) Pull Off  (b) Bend (r) Release (v) Vibrato


E|-----------------
B|-----------------
G|--7--5--5--------
D|--7--7--5--5--5--
A|--5--8--3--5--2--
E|--5--5--3--3--3--



E|--------------
B|--------------
G|-----------7--
D|--2--5--7--7--
A|--3--7--8--5--
E|--5--8--5-----



E|--------------------------------
B|--------------------------------
G|--5--3--3--------7--5--5--------
D|--5--5--3--3-----7--7--5--5--5--
A|--3--6--1--3--3--5--8--3--5--2--
E|--3--3--1--1--0--5--5--3--3--3--
http://www.guitartabcreator.com
Guitar Tab Creator is intended to store guitar tab created through the tool. It currently does not support in-line text editing. Any text you place in here will be lost. If you need to comment on your tab, please use the "Tab Notes" section located below.