Cliche

(/) Slide Up  (\) Slide Down  (h) Hammer On  (p) Pull Off  (b) Bend (r) Release (v) Vibrato
E|-----------------------------------------------------------------------------
B|-----------------------------------------------------------------------------
G|-----------------------------------------------------------------------------
D|---------7--------------------------0-----------0----------------------------
A|-------------------------------0---------5/7---------0----------------3/5----
D|----0---------8----0----5h7-------------------------------0----3h5-----------



E|------------------------------------------------------------------------------------
B|------------------------------------------------------------------------------------
G|---------7------------------------0----5----7---------------------------------------
D|----0---------8----0----5----7-------------------0----5----7----0----7----8----7----
A|------------------------------------------------------------------------------------
D|------------------------------------------------------------------------------------


t: nonenone nonenone none none none
E|-------------------------------
B|-------------------------------
G|----10----10----5----5---------
D|----10----10----5----5----0----
A|----8-----8-----3----3----0----
D|----8-----7-----3----2----0----



E|------------------------------------------------------------------------------------
B|------------------------------------------------------------------------------------
G|------------------------------------------------------------------------------------
D|------------------------------------------------------------------------------------
A|-------------------5----3----0-----------------------------3------------------------
D|----0----3----5-------------------5----3----0----3----5---------5----3----0----3----



E|------------------------------------------------------------------------------------
B|------------------------------------------------------------------------------------
G|------------------------------------------------------------------------------------
D|-------------------7----5----0-----------------------------5------------------------
A|----0----5----7-------------------7----5----0----5----7---------7----5----0----5----
D|------------------------------------------------------------------------------------



E|-------------------------------|---------
B|-----5--11---------------------|---------
G|--5--5--11---------------------|--7--9--
D|--5--3--9---12--11-------------|---------
A|--3--3--9---9---9---12--11--9--|--5--7---
D|--3--3--9-----------9---9---9--|---------
http://www.guitartabcreator.com
Guitar Tab Creator is intended to store guitar tab created through the tool. It currently does not support in-line text editing. Any text you place in here will be lost. If you need to comment on your tab, please use the "Tab Notes" section located below.