ballad

(/) Slide Up  (\) Slide Down  (h) Hammer On  (p) Pull Off  (b) Bend (r) Release (v) Vibrato


E|-----------------------------5----3----0-------------------
B|---------3----0----3----3----3----3----1----0----1----0----
G|----2----2----0----0----4----2----3----2----0--------------
D|----0----0----2----2----2----0----0----3----2--------------
A|----2----0----3----3----3--------------3----3--------------
E|----3----2----------------------------------3--------------



E|---------
B|---------
G|---------
D|---------
A|---------
E|---------



E|------------------------------------
B|------------------------------------
G|--------------------11----9----7----
D|----7----9----11----11----9----7----
A|----5----7----9-----9-----7----5----
E|--------------------10----8----6----



E|------------------------
B|------------------------
G|------------------------
D|----7----5----2----4----
A|----4----2----0----2----
E|----5----0----2----3----
http://www.guitartabcreator.com
Guitar Tab Creator is intended to store guitar tab created through the tool. It currently does not support in-line text editing. Any text you place in here will be lost. If you need to comment on your tab, please use the "Tab Notes" section located below.