Aether

(/) Slide Up  (\) Slide Down  (h) Hammer On  (p) Pull Off  (b) Bend (r) Release (v) Vibrato
E|--2--2--------2--------2--2--2--------2--------2-----3--------3--------3-----3-------------5/7--
B|--0-----0--------0--------0-----0--------0--------------0--------0--------------0-----7h0-------
G|--2--------2--------2-----2--------2--------2--------------3--------3--------------3------------
D|--0-----------------------0-----------------------0-----------------------0---------------------
A|--0-----------------------0-----------------------0-----------------------0---------------------
E|--0-----------------------0-----------------------0-----------------------0---------------------



E|--2--2h9p2---------2--2h9p2---------2--2h9p2------------2----------2-----
B|--0---------5/7p0--0---------5/7p0--0---------5/7p0-------------------0--
G|--2----------------2----------------2----------------7-----2--7\5--------
D|--0----------------0----------------0------------------------------------
A|--0----------------0----------------0------------------------------------
E|--0----------------0----------------0------------------------------------



E|--2--2h9p2---------2--2h9p2---------2--2h9p2------------2--------2-------2--
B|--0---------5/7p0--0---------5/7p0--0---------5/7p0-----------------5p0--0--
G|--2----------------2----------------2----------------7-----2--5----------2--
D|--0----------------0----------------0------------------------------------0--
A|--0----------------0----------------0------------------------------------0--
E|--0----------------0----------------0------------------------------------0--



E|-----------0-----0--------------0--------0-----------0--------0--------------0------------
B|--------0-----------0--------------0--------------------0--------0--------------0---------
G|-----7--------5--------5-----5--------5-----5-----5--------5--------5-----5--------5/7p0--
D|--0-----------------------2--------------------3-----------------------5------------------
A|--0-----------------------2--------------------3-----------------------5------------------
E|--0-----------------------2--------------------3-----------------------5------------------



E|-----------0-----0--------------0--------0-----------0--------0----------------0------------
B|--------0-----------0--------------0--------------------0--------0----------------8\7-------
G|-----7--------5--------5-----5--------5-----5-----5--------5--------5-----5/7----------5h7--
D|--0-----------------------2--------------------3-----------------------5--------------------
A|--0-----------------------2--------------------3-----------------------5--------------------
E|--0-----------------------2--------------------3-----------------------5--------------------



E|-----------0-----0--------------0--------0-----------0--------0--------------0------------
B|--------0-----------0--------------0--------------------0--------0--------------0---------
G|-----7--------5--------5-----5--------5-----5-----5--------5--------5-----5--------5/7p0--
D|--0-----------------------2--------------------3-----------------------5------------------
A|--0-----------------------2--------------------3-----------------------5------------------
E|--0-----------------------2--------------------3-----------------------5------------------



E|-----------0-----0--------------0--------0-----------0--------0--------------0-----------------
B|--------0-----------0--------------0--------------------0--------0--------------0--------------
G|-----7--------5--------5-----5--------5-----5-----5--------5--------5-----5-----------5-----5--
D|--0-----------------------2--------------------3-----------------------5-----------3-----2-----
A|--0-----------------------2--------------------3-----------------------5-----------3-----2-----
E|--0-----------------------2--------------------3-----------------------5-----------3-----2-----



E|--
B|--
G|--
D|--
A|--
E|--
http://www.guitartabcreator.com
Guitar Tab Creator is intended to store guitar tab created through the tool. It currently does not support in-line text editing. Any text you place in here will be lost. If you need to comment on your tab, please use the "Tab Notes" section located below.