Transposing For Fun #1

(/) Slide Up  (\) Slide Down  (h) Hammer On  (p) Pull Off  (b) Bend (r) Release (v) Vibrato


E|----------------------------------------------------------------
B|----------------------------------------------------------------
G|------10--14--10------------------------------10------9--12--9--
D|--12------------------10--14--10----------12------10------------
A|------------------12------------------13------------------------
E|----------------------------------13----------------------------



E|-----------------------------------------------------------------
B|-----------------------------------------------------------------
G|----------10--15--12--15--19--15--10--14--17--14--9--12--14------
D|------12---------------------------------------------------------
A|--13---------------------------------------------------------12--
E|-----------------------------------------------------------------
http://www.guitartabcreator.com
Guitar Tab Creator is intended to store guitar tab created through the tool. It currently does not support in-line text editing. Any text you place in here will be lost. If you need to comment on your tab, please use the "Tab Notes" section located below.