Seirenes

(/) Slide Up  (\) Slide Down  (h) Hammer On  (p) Pull Off  (b) Bend (r) Release (v) Vibrato
E|-----------------------|---------------------------|-----------------------|-
B|-----------------------|--------5-5--5--5--5-5-5-5-|-----------------------|-
G|-4---5---4---2-2--2--2-|-4---5--x-x--x--x--x-x-x-x-|-4---5---4---2-2--2--2-|-
D|-2---2---2---1-1--1--1-|-2---2--3-3--3--3--3-3-3-3-|-2---2---2---1-1--1--1-|-
A|-0---0---0---0-0--0--0-|-0---0--0-0--0--0--0-0-0-0-|-0---0---0---0-0--0--0-|-
E|-----------------------|---------------------------|-----------------------|-



E|-----------------------------------------------------------|-
B|---------------8---------------6---------------------------|-
G|-----------------------------------------------4-----5-----|-
D|-------2-3-5-6---------2-3-5-6---------2-3-5-6-6-----6-----|-
A|---3-4-------------3-4-------------3-4---------------------|-
E|-1---------------1---------------1-------------------------|-



E|---------------8/14---------------6/12-----------------------
B|-------------------------------------------------------------
G|-----------------------------------------------------4-----5-
D|-------2-3-5-6------------2-3-5-6------------2-3-5-6-6-----6-
A|---3-4----------------3-4----------------3-4-----------------
E|-1------------------1------------------1---------------------



E|-------------------------------------------------------------
B|-------------------------------------------------------------
G|---------1---------------1-1---------1-----------------------
D|-------2---2-----------2-----------2---2---------3-----4-4---
A|---3-4-------4-3---3-4---------3-4-------4-3---2---2---------
E|-1---------------1-----------1---------------1-------1-------



E|------------------------------------------------------------------------------------------------
B|------------------------------------------------------------------------------------------------
G|----------------------------------------------------------------3-----4-----5-------------------
D|-3-----4-----5-----4-----3-----4-----5--3-----4-----5-----4-------2-----3-----4---3-----4-----5-
A|---2-1---2-1---2-1---2-1---2-1---2-1------2-1---2-1---2-1---2-1-----1-----2-----3---2-1---2-1---
E|------------------------------------------------------------------------------------------------



E|------------------------------------------------------------------------
B|-----------------------------3----------------3-----5-----------3-----5-
G|---3-----4-------3-----4----------3-----4-----------------4-------------
D|-----2-----3-------2-----3----------2-----3-----3-----3-----3-----3-----
A|-------1-----2-------1-----2----------1-----2-----2-----2-----2-----2---
E|-0-------------0----------------0---------------------------------------



E|---------------------------------------------
B|---------------------------------------------
G|--3--3-----------3--3--4---------3--3--------
D|--2--2--x--x--x--2--2--3---------2--2--x--x--
A|--1--1--x--x--x--1--1--2---------1--1--x--x--
E|--------x--x--x-----------3b5b3--------x--x--



E|------------------------------------------------------------------------------------
B|---------------------------------3/12---------------------3-----5-----------3-----5-
G|-3-----4-------------3-----4------------------3-----4-----------------4-------------
D|---2-----3-------------2-----3------------------2-----3-----3-----3-----3-----3-----
A|-----1-----2-------------1-----2------------------1-----2-----2-----2-----2-----2---
E|-------------0-0-0-0------------------0-0-0-0---------------------------------------



E|-------------------------------------------
B|-5-----3---------3b4b3-5-----3-------------
G|-------------4---------------------4-3-2-1-
D|---3-----3-----2---------3-----3---4-3-2-1-
A|-----2-----2---------------2-----2---------
E|-------------------------------------------



E|-----
B|-----
G|-----
D|-----
A|---0-
E|-----
http://www.guitartabcreator.com
Guitar Tab Creator is intended to store guitar tab created through the tool. It currently does not support in-line text editing. Any text you place in here will be lost. If you need to comment on your tab, please use the "Tab Notes" section located below.