Atropos

(/) Slide Up  (\) Slide Down  (h) Hammer On  (p) Pull Off  (b) Bend (r) Release (v) Vibrato
E|--------0----------0--------------0--
B|--------7-------------7-----------7--
G|--------8----------------8--------8--
D|-----6-------------------------6-----
A|--0-------------------------0--------
E|-------------------------------------



E|---------------------------------------------------------------
B|-----------0----------------------------------0----------------
G|--------0-----0----------4--4b5r4----------0-----0-------------
D|-----2----------------6-----------------2-------------6--------
A|---------------------------------------------------------0-----
E|--1----------------5-----------------1----------------------4--
http://www.guitartabcreator.com
Guitar Tab Creator is intended to store guitar tab created through the tool. It currently does not support in-line text editing. Any text you place in here will be lost. If you need to comment on your tab, please use the "Tab Notes" section located below.