The Attack

(/) Slide Up  (\) Slide Down  (h) Hammer On  (p) Pull Off  (b) Bend (r) Release (v) Vibrato
(.) Palm Mute (<) Pick Slide (*) Triplet

THIS SONG IS IN A DROP B TUNING MEANING FROM STANDARD YOU DROP THE STRINGS 1 AND 1/2 STEPS

INTRO

Db|-------------------------------------|
Ab|-------------------------------------|
E |-------------------------------------|
B |--------------------0----------------|
Fb|--0-0---0-0-0--0----0-----<<<<<------|
B |--0-0---0-0-0--0----0-----<<<<<------|
. . . . . .


Db|--------------------------------------------------------------------------------------------|
Ab|--------------------------------------------------------------------------------------------|
E |--------------------------------------------------------------------------------------------|
B |---------------8--------5--------7-----3-----------------------8--------7-------7---5---3---|
Fb|--0-0-0--0--0--8--0--0--5--0--0--7--0--3--0-3h5---0-0-0--0--0--8--0--0--7--0--0-------------|
B |--0-0-0--0--0--8--0--0--5--0--0--7--0--3--0-3h5---0-0-0--0--0--8--0--0--7--0--0---0---0-----|
* * * . . . . . . . . * * * . . . . . . . .


Db|------------------------------------------------------------------------------------------|
Ab|------------------------------------------------------------------------------------------|
E |------------------------------------------------------------------------------------------|
B |---------------8--------5--------7-----3----------------------5------3------2----0h5-7/3--|
Fb|--0-0-0--0--0--8--0--0--5--0--0--7--0--3--0-3h5---3-3-3--3--3---3--3---3--3---3-----------|
B |--0-0-0--0--0--8--0--0--5--0--0--7--0--3--0-3h5---3-3-3--3--3---3--3---3--3---3-----------|
* * * . . . . . . . . * * * . . . . . . .


Db|--------------------------------------------------------------------------|
Ab|--------------------------------------------------------------------------|
E |--------------------------------------------------------------------------|
B |--------------------------------------------------------------------------|
Fb|--0-0-0-0----------0-0--0----------0-0-0-0-0-0-0-0----------1-0-1-5-4-1---|
B |--0-0-0-0-0h1-0h1--0-0--0-0h1-0h1--0-0-0-0-0-0-0-0-0h1-0h1--1-0-1-5-4-1---|
. . . . . . . . . . . . . . . . . . . . .


Db|----------------------------------------------------------------------------|
Ab|----------------------------------------------------------------------------|
E |----------------------------------------------------------------------------|
B |----------------------------------------------------------------------------|
Fb|--0-0-0-0----------0-0--0----------0-0-0-0-0-0-0-0----------1-1-0-1-5-4-1---|
B |--0-0-0-0-0h1-0h1--0-0--0-0h1-0h1--0-0-0-0-0-0-0-0-0h1-0h1--1-1-0-1-5-4-1---|
. . . . . . . . . . . . . . . . . . . . . .


Db|---------------------------------------------------------------------|
Ab|---------------------------------------------------------------------|
E |---------------------------------------------------------------------|
B |------------3-----5-----7-----7-8-7-5---8--8--8---5--5-5--8--8-8-8---|
Fb|--0---0--0--5-----7-----8-----8-8-8-7---8--8--8---5--5-5--8--8-8-8---|
B |--0---0--0----0-0---0-0---0-0-----------8--8--8---5--5-5--8--8-8-8---|
. . . . . . . . . . . . . . .


Db|-------------------------------------------------------------------------|
Ab|-------------------------------------------------------------------------|
E |-------------------------------------------------------------------------|
B |------------3-----5-----7-----7-8-7-5---8--8--8---7--7-7--10--10-10/12---|
Fb|--0---0--0--5-----7-----8-----8-8-8-7---8--8--8---7--7-7--10--10-10/12---|
B |--0---0--0----0-0---0-0---0-0-----------8--8--8---7--7-7--10--10-10/12---|
. . . . . . . . . . . . . . .


Db|-------------------------------------------------------------------|
Ab|-------------------------------------------------------------------|
E |-------------------------------------------------------------------|
B |------------3-----5-----7-----7-8-7-5---8--8--8---5--5-5-7--3--1---|
Fb|--0---0--0--5-----7-----8-----8-8-8-7---8--8--8---5--5-5-7--3--1---|
B |--0---0--0----0-0---0-0---0-0-----------8--8--8---5--5-5-7--3--1---|
. . . . . . . . . . . . . . . . .


Db|-------------------------------------------------------------------------------------|
Ab|-------------------------------------------------------------------------------------|
E |-------------------------------------------------------------------------------------|
B |------------3-----5-----7-----7-8-7-5-----------8--8--8--------------10----------1---|
Fb|--0---0--0--5-----7-----8-----8-8-8-7---8-8-8-8-8--8--8--10-10-10-10-10--1-1-1-1-1---|
B |--0---0--0----0-0---0-0---0-0-----------8-8-8-8-8--8--8--10-10-10-10-10--1-1-1-1-1---|
. . . . . . . . . . . . . . . . . . . . . . . . . . .


Db|-----------------------------------------------------------------------------------------|
Ab|-----------------------------------------------------------------------------------------|
E |-----------------------------------------------------------------------------------------|
B |----------------------------------------5------------------------------------------------|
Fb|----------0--0--0-----------------------5------------0--0--0-----------------------------|
B |--0-0-0-0-0--0--0--0-0-0-0-1p0--0-0-0-0-5----0-0-0-0-0--0--0--0-0-0-0-1p0--0-0-0-0-6p3---|
. . . . . . . . . . . . . . . . . . . . . . . .


Db|----------------------------------------------------------------------------------|
Ab|----------------------------------------------------------------------------------|
E |----------------------------------------------------------------------------------|
B |----------------------------------------------------------------------------------|
Fb|----------0--0--0-----------------------5-----------3--3-=--------2-----------1---|
B |--0-0-0-0-0--0--0--0-0-0-0-1p0--0-0-0-0-5---3-3-3-3-3--3--2-2-2-2-2---1-1-1-1-1---|



Db|--------------------------------------------------------------------------------------------|
Ab|--------------------------------------------------------------------------------------------|
E |--------------------------------------------------------------------------------------------|
B |---------------8--------5--------7-----3-----------------------8--------7-------7---5---3---|
Fb|--0-0-0--0--0--8--0--0--5--0--0--7--0--3--0-3h5---0-0-0--0--0--8--0--0--7--0--0-------------|
B |--0-0-0--0--0--8--0--0--5--0--0--7--0--3--0-3h5---0-0-0--0--0--8--0--0--7--0--0---0---0-----|
* * * . . . . . . . . * * * . . . . . . . .


Db|------------------------------------------------------------------------------------------|
Ab|------------------------------------------------------------------------------------------|
E |------------------------------------------------------------------------------------------|
B |---------------8--------5--------7-----3----------------------5------3------2----0h5-7/3--|
Fb|--0-0-0--0--0--8--0--0--5--0--0--7--0--3--0-3h5---3-3-3--3--3---3--3---3--3---3-----------|
B |--0-0-0--0--0--8--0--0--5--0--0--7--0--3--0-3h5---3-3-3--3--3---3--3---3--3---3-----------|
* * * . . . . . . . . * * * . . . . . . .


Db|---------------------------------------------------------------------|
Ab|---------------------------------------------------------------------|
E |---------------------------------------------------------------------|
B |------------3-----5-----7-----7-8-7-5---8--8--8---5--5-5--8--8-8-8---|
Fb|--0---0--0--5-----7-----8-----8-8-8-7---8--8--8---5--5-5--8--8-8-8---|
B |--0---0--0----0-0---0-0---0-0-----------8--8--8---5--5-5--8--8-8-8---|
. . . . . . . . . . . . . . .


Db|-------------------------------------------------------------------------|
Ab|-------------------------------------------------------------------------|
E |-------------------------------------------------------------------------|
B |------------3-----5-----7-----7-8-7-5---8--8--8---7--7-7--10--10-10/12---|
Fb|--0---0--0--5-----7-----8-----8-8-8-7---8--8--8---7--7-7--10--10-10/12---|
B |--0---0--0----0-0---0-0---0-0-----------8--8--8---7--7-7--10--10-10/12---|
. . . . . . . . . . . . . . .


Db|-------------------------------------------------------------------|
Ab|-------------------------------------------------------------------|
E |-------------------------------------------------------------------|
B |------------3-----5-----7-----7-8-7-5---8--8--8---5--5-5-7--3--1---|
Fb|--0---0--0--5-----7-----8-----8-8-8-7---8--8--8---5--5-5-7--3--1---|
B |--0---0--0----0-0---0-0---0-0-----------8--8--8---5--5-5-7--3--1---|
. . . . . . . . . . . . . . . . .


Db|------------------------------------------------------------------------------------|
Ab|------------------------------------------------------------------------------------|
E |------------------------------------------------10-10-10------------10-10--10-------|
B |------------3-----5-----7-----7-8-7-5-----------8--8--8-------------7--7---7----0---|
Fb|--0---0--0--5-----7-----8-----8-8-8-7---8-8-8-8-8--8--8--7-7-7-7-7--7--7---7----0---|
B |--0---0--0----0-0---0-0---0-0-----------8-8-8-8-8--8--8--7-7-7-7-7--7--7---7----0---|
. . . . . . . . . . . . . . . . . . . . . . . . . . .

THIS IS WHERE I START SOLO


Db|------------------------------------------------------|
Ab|------------------------------------------------------|
E |------------------------------------------------------| X 2
B |------------------------------------------------------|
Fb|--0-0-0--0--0--8--0--0--5--0--0--7--0--3--0-3-5-------|
B |--0-0-0--0--0--8--0--0--5--0--0--7--0--3--0-3-5-------|
* * * . . . . . . . . . . . . . .


Db|--------------------------------------------------------------------------------------------|
Ab|--------------------------------------------------------------------------------------------|
E |--------------------------------------------------------------------------------------------|
B |--------------------------------------------------------------7------5------3---------------|
Fb|--0-0-0--0--0--8--0--0--5--0--0--7--0--3--0-3-5---3-3-3--3--3---3--3---3--3---3---3-7-8-5---|
B |--0-0-0--0--0--8--0--0--5--0--0--7--0--3--0-3-5---3-3-3--3--3---3--3---3--3---3-------------|
* * * . . . . . . . . . . . . . . * * * . . . . . . . . . . . . . .


Db|---------------------------------------------------------------------|
Ab|---------------------------------------------------------------------|
E |---------------------------------------------------------------------|
B |------------3-----5-----7-----7-8-7-5---8--8--8---5--5-5--8--8-8-8---|
Fb|--0---0--0--5-----7-----8-----8-8-8-7---8--8--8---5--5-5--8--8-8-8---|
B |--0---0--0----0-0---0-0---0-0-----------8--8--8---5--5-5--8--8-8-8---|
. . . . . . . . . . . . . . .


Db|-------------------------------------------------------------------------|
Ab|-------------------------------------------------------------------------|
E |-------------------------------------------------------------------------|
B |------------3-----5-----7-----7-8-7-5---8--8--8---7--7-7--10--10-10/12---|
Fb|--0---0--0--5-----7-----8-----8-8-8-7---8--8--8---7--7-7--10--10-10/12---|
B |--0---0--0----0-0---0-0---0-0-----------8--8--8---7--7-7--10--10-10/12---|
. . . . . . . . . . . . . . .



Db|-------------------------------------------------------------------|
Ab|-------------------------------------------------------------------|
E |-------------------------------------------------------------------|
B |------------3-----5-----7-----7-8-7-5---8--8--8---5--5-5-7--3--1---|
Fb|--0---0--0--5-----7-----8-----8-8-8-7---8--8--8---5--5-5-7--3--1---|
B |--0---0--0----0-0---0-0---0-0-----------8--8--8---5--5-5-7--3--1---|
. . . . . . . . . . . . . . . . .


Db|------------------------------------------------------------------------------------|
Ab|------------------------------------------------------------------------------------|
E |------------------------------------------------10-10-10------------10-10--10-------|
B |------------3-----5-----7-----7-8-7-5-----------8--8--8-------------7--7---7----0---|
Fb|--0---0--0--5-----7-----8-----8-8-8-7---8-8-8-8-8--8--8--7-7-7-7-7--7--7---7----0---|
B |--0---0--0----0-0---0-0---0-0-----------8-8-8-8-8--8--8--7-7-7-7-7--7--7---7----0---|
. . . . . . . . . . . . . . . . . . . . . . . . . . .
Guitar Tab Creator is intended to store guitar tab created through the tool. It currently does not support in-line text editing. Any text you place in here will be lost. If you need to comment on your tab, please use the "Tab Notes" section located below.