All For You

(/) Slide Up  (\) Slide Down  (h) Hammer On  (p) Pull Off  (b) Bend (r) Release (v) Vibrato


E|--------------------------------------------------
B|--------------------------------------------------
G|--------------------------------------------------
D|--------------------------------------------------
A|--2--2--2--2--------------2--2--2--2--------------
E|--------------2--2--2--2--------------2--2--2--2--



E|--------------------------------------------------------------
B|--------------------------------------------------------------
G|--------------------------------------------------------------
D|--------------------------------------------------------------
A|--2--2--2--4--2--4--6--6--6--7--6--7--------------------------
E|--------------------------------------0--0--0--0--2--2--2--2--



E|---------------------------------------------------------------------
B|---------------------------------------------------------------------
G|-----------------------------------------------------------------4-6-
D|-------------------------------------------------4-4-4-4-4-4-5-6-----
A|-2-2-2-2-2-2-2-2-----------------4-4-4-4-4-4-4-4---------------------
E|-----------------0-0-0-0-0-0-0-0-------------------------------------



E|----------------------------------------------------------------------
B|----------------------------------------------------------------------
G|-18-16-18-16-18-16-18-16-18-16-18-------16-------16-------16-18-20-18-
D|----------------------------------16-18----16-18----16-18-------------
A|----------------------------------------------------------------------
E|----------------------------------------------------------------------
http://www.guitartabcreator.com
Guitar Tab Creator is intended to store guitar tab created through the tool. It currently does not support in-line text editing. Any text you place in here will be lost. If you need to comment on your tab, please use the "Tab Notes" section located below.