Nothing is Said

(/) Slide Up  (\) Slide Down  (h) Hammer On  (p) Pull Off  (b) Bend (r) Release (v) Vibrato


E|-----------------------------------------
B|-----------------------------------------
G|---9---9---9---9----11----11----11----11-
D|-----------------------------------------
A|-----------------------------------------
E|-9---9---9---9---11----11----11----11----



E|---------------------------------
B|---------------------------------
G|---4---4---4---4---6---6---6---6-
D|---------------------------------
A|---------------------------------
E|-4---4---4---4---5---5---5---5---



E|---------------------------------
B|---------------------------------
G|---9---9---9---9---8---8---8---8-
D|---------------------------------
A|---------------------------------
E|-9---9---9---9---7---7---7---7---



E|---------------------------------
B|---------------------------------
G|---6---6---6---6---6---6---6---6-
D|---------------------------------
A|---------------------------------
E|-5---5---5---5---5---5---5---5---



E|-------------------------------------------------
B|-------------------------------------------------
G|----13----13----13----13----14----14----14----14-
D|-------------------------------------------------
A|-------------------------------------------------
E|-12----12----12----12----12----12----12----12----



E|-------------------------------------------------
B|-------------------------------------------------
G|----11----11----11----11----13----13----13----13-
D|-------------------------------------------------
A|-------------------------------------------------
E|-11----11----11----11----11----11----11----11----



E|---------------------------------
B|---------------------------------
G|---9---9---9---9---4---4---4---4-
D|---------------------------------
A|---------------------------------
E|-9---9---9---9---4---4---4---4---



E|---------------------------------
B|---------------------------------
G|---6---6---6---6---6---6---6---6-
D|---------------------------------
A|---------------------------------
E|-5---5---5---5---5---5---5---5---
http://www.guitartabcreator.com
Guitar Tab Creator is intended to store guitar tab created through the tool. It currently does not support in-line text editing. Any text you place in here will be lost. If you need to comment on your tab, please use the "Tab Notes" section located below.