Nothing Else Matters

(/) Slide Up  (\) Slide Down  (h) Hammer On  (p) Pull Off  (b) Bend (r) Release (v) Vibrato


E|-----------0-----------------0-----------------0-----------------0-----7--7--------7p0-----------
B|--------0-----0-----------0-----0-----------0-----0-----------0-----0--------0----------0--------
G|-----0-----------0-----0-----------0-----0-----------0-----0--------------------0----------0-----
D|-------------------------------------------------------------------------------------------------
A|-------------------------------------------------------------------------------------------------
E|--0-----------------0-----------------0-----------------0-----------------0----------------------



E|--------7--8--7h8p7--5--7--5--2--0--------2p0--
B|-----------0---------------------------5-------
G|-----0------------------------------5----------
D|-----------------------------------------------
A|---------------------------------0-------------
E|--0--------------------------------------------
http://www.guitartabcreator.com
Guitar Tab Creator is intended to store guitar tab created through the tool. It currently does not support in-line text editing. Any text you place in here will be lost. If you need to comment on your tab, please use the "Tab Notes" section located below.