Dear God - Avenged Sevenfold

(/) Slide Up  (\) Slide Down  (h) Hammer On  (p) Pull Off  (b) Bend (r) Release (v) Vibrato


E|-----3--------------------0-------------------------0--0--x--x--2--2-----------------
B|-----3--0h1p0-------------3-------------------------0--0--x--x--3-----3--------------
G|-----0---------2p0-----2-----2h4p2p0----------------0--0--x--x--4--------4-----------
D|-----0--------------4-----------------2--4--5\2-----2--2--x--x--4--------------0-----
A|----------------------------------------------------2--2--x--x--2-----------2--------
E|--3----------------------------------------------0--0--0--x--x-----------------------



E|------------------------------------3-----------2--
B|--------------1h3--1p0-----------0-----0--------3--
G|--------0-----0----0----------2-----------2-----2--
D|-----2-----2---------------0-----------------0--0--
A|--3------------------------------------------------
E|------------------------3--------------------------



E|--2------------------------------------------3--
B|--3------------------------------------------3--
G|-----0--------0--2h4p2p0--2p0-----0----------0--
D|--------2--4-------------------4-----2p0-----0--
A|---------------------------------------------x--
E|------------------------------------------3--3--
http://www.guitartabcreator.com
Guitar Tab Creator is intended to store guitar tab created through the tool. It currently does not support in-line text editing. Any text you place in here will be lost. If you need to comment on your tab, please use the "Tab Notes" section located below.