Stuck On You Bass Tab

(/) Slide Up  (\) Slide Down  (h) Hammer On  (p) Pull Off  (b) Bend (r) Release (v) Vibrato

Stave 1:

E|--------------
B|--------------
G|--------------
D|--------------
A|-----2--4--0--
E|--0-----------

Stave 2:

E|-------------------------------------------------------------------
B|-------------------------------------------------------------------
G|-------------------------------------------------------------------
D|-------------------------------------------------------------------
A|--0/7--7--7--7--7--6--6--6--6--6\4--4--4--4--4\0--0--0--0/7--7--7--
E|-------------------------------------------------------------------

Stave 3:

E|-----------------------------------------------------------------
B|-----------------------------------------------------------------
G|-----------------------------------------------------------------
D|-----------------------------------------------------------------
A|--------------7--7--6--6--6--6--6\4--4--4--4--4\0--0--0--0/7--7--
E|--0--0--0--0-----------------------------------------------------

Stave 4:

E|-------------------------------------------------------------
B|-------------------------------------------------------------
G|-------------------------------------------------------------
D|-------------------------------------------------------------
A|-----------------2--2--2--2--2--4--4--4--4--4\0--0--0--0--0--
E|--0--0--0--0--0----------------------------------------------

Stave 5:

E|--------------------------------------------------------------
B|--------------------------------------------------------------
G|--------------------------------------------------------------
D|--------------------------------------------------------------
A|--0/7--7--7--7--7--6--6--6--6--6\4--4--4--4--4\0--0--0--0--0--
E|--------------------------------------------------------------

Stave 6:

E|--------------------------------------------------------------------------------------------------
B|--------------------------------------------------------------------------------------------------
G|--------------------------------------------------------------------------------------------------
D|--------------------------------------------------------------------------------------------------
A|--------------------------2--2--2--2--2--2--2--2--4--4--4--4--4--4--4--4--0--0--0--0--0--0--0--0--
E|--0--0--0--0--0--0--0--0--------------------------------------------------------------------------

http://www.guitartabcreator.com
Guitar Tab Creator is intended to store guitar tab created through the tool. It currently does not support in-line text editing. Any text you place in here will be lost. If you need to comment on your tab, please use the "Tab Notes" section located below.