Werewolf

(/) Slide Up  (\) Slide Down  (h) Hammer On  (p) Pull Off  (b) Bend (r) Release (v) Vibrato

E|-1-1-1-1-1-1-1-1-1-1-1-6-6-6-6-6-6-6-6-6-6-6-3-3-3-3-3-3-3-3-3-3-----------------------
B|-----------------------------------------------------------------3-3-3-3-3-3-3-3-3-3-3-
G|---------------------------------------------------------------------------------------
D|---------------------------------------------------------------------------------------
A|---------------------------------------------------------------------------------------
E|---------------------------------------------------------------------------------------



E|-----------------2-2-2-2-2-2-2-2-----------------2-2-2-2---
B|-2-2-2-2-2-2-2-2-----------------2-2-2-2-2-2-2-2-----------
G|-----------------------------------------------------------
D|-----------------------------------------------------------
A|-----------------------------------------------------------
E|-----------------------------------------------------------



E|-1-1-1-1-1-1-1-1-1-1-1-6-6-6-6-6-6-6-6-6-6-6-3-3-3-3-3-3-3-3-3-3-3-----------------------
B|-------------------------------------------------------------------3-3-3-3-3-3-3-3-3-3-3-
G|-----------------------------------------------------------------------------------------
D|-----------------------------------------------------------------------------------------
A|-----------------------------------------------------------------------------------------
E|-----------------------------------------------------------------------------------------



E|-----------------2-2-2-2-2-2-2-2-----------------2-2-2-2-
B|-2-2-2-2-2-2-2-2-----------------2-2-2-2-2-2-2-2---------
G|---------------------------------------------------------
D|---------------------------------------------------------
A|---------------------------------------------------------
E|---------------------------------------------------------



E|-
B|-
G|-
D|-
A|-
E|-



E|-----------------2-2-2-2-2-2-2-2-----------------2-2-2-2---
B|-2-2-2-2-2-2-2-2-----------------2-2-2-2-2-2-2-2-----------
G|-----------------------------------------------------------
D|-----------------------------------------------------------
A|-----------------------------------------------------------
E|-----------------------------------------------------------



E|-----------------4-4-4-4-4-4-4-4-----------------4-4-4-4-
B|-4-4-4-4-4-4-4-4-----------------4-4-4-4-4-4-4-4---------
G|---------------------------------------------------------
D|---------------------------------------------------------
A|---------------------------------------------------------
E|---------------------------------------------------------



E|-----------------2-2-2-2-2-2-2-2-----------------2-2-2-2-
B|-2-2-2-2-2-2-2-2-----------------2-2-2-2-2-2-2-2---------
G|---------------------------------------------------------
D|---------------------------------------------------------
A|---------------------------------------------------------
E|---------------------------------------------------------



E|-1-1-1-1-1-1-1-1-1-1-1-6-6-6-6-6-6-6-6-6-6-6-3-3-3-3-3-3-3-3-3-3-3---------------------
B|-------------------------------------------------------------------3-3-3-3-3-3-3-3-3-3-
G|---------------------------------------------------------------------------------------
D|---------------------------------------------------------------------------------------
A|---------------------------------------------------------------------------------------
E|---------------------------------------------------------------------------------------



E|--1--1--1--1--1--1--1--1--1--1--1--6--6--6--6--6--6--6--6--6--6--6--3--3--3--3--3--3--3--3--3--3--3--------------------
B|-----------------------------------------------------------------------------------------------------3--3--3--3--3--3--
G|-----------------------------------------------------------------------------------------------------------------------
D|-----------------------------------------------------------------------------------------------------------------------
A|-----------------------------------------------------------------------------------------------------------------------
E|-----------------------------------------------------------------------------------------------------------------------



E|-----
B|--3--
G|-----
D|-----
A|-----
E|-----
http://www.guitartabcreator.com
Guitar Tab Creator is intended to store guitar tab created through the tool. It currently does not support in-line text editing. Any text you place in here will be lost. If you need to comment on your tab, please use the "Tab Notes" section located below.