Sick

(/) Slide Up  (\) Slide Down  (h) Hammer On  (p) Pull Off  (b) Bend (r) Release (v) Vibrato


E|--------------------------------------------------------------------
B|--------------------------------------------------------------------
G|--------------------------------------------------------------------
D|--------------------------------------------------------------------
A|--------------------------------------------------------------------
E|--3--3--6--5--5--8--3--3--6--3--5--3--5--3--5--3--5--3--5--3--5--4--



E|--------------------------------------------------------------------------
B|--------------------------------------------------------------------------
G|--------------------------------------------------------------------------
D|--------------------------------------------------------------------------
A|--------------------------------------------------------6--6--6--5--5--5--
E|--3--3--3--3--3--3--3--3--6--6--6--6--3--3--3--3--3--3--------------------



E|--------------------------------------------------------------
B|--------------------------------------------------------------
G|--------------------------------------------------------------
D|--------------------------------------------------------------
A|--------------------------------------------------8--8--7--7--
E|--3--3--3--3--3--3--6--6--6--6--3--3--3--3--3--3--------------



E|--------------------------------------------------------------------
B|--------------------------------------------------------------------
G|--------------------------------------------------------------------
D|--------------------------------------------------------------------
A|--------------------------------------------------------------------
E|--3--3--6--5--5--8--3--3--6--3--5--3--5--3--5--3--5--3--5--3--5--4--



E|--------------------------------------------------------
B|--------------------------------------------------------
G|--------------------------------------------------------
D|--------------------------------------------------------
A|--------------------3--3--3--3--------------------5--4--
E|--2--2--2--2--2--2--------------2--2--2--2--2--2--------



E|--------------------------------------------------------------
B|--------------------------------------------------------------
G|--------------------------------------------------------------
D|--------------------------------------------------------------
A|--------------------3--3--3--3--------------------------------
E|--2--2--2--2--2--2--------------2--2--2--2--2--2--6--5--4--3--



E|-------------------------------------------------------------------------------------------------------
B|-------------------------------------------------------------------------------------------------------
G|-------------------------------------------------------------------------------------------------------
D|-------------------------------------------------------------------------------------------------------
A|-------------------------------------------------------------------------------------------------------
E|-2-2-2-2-2-2-2-2-2-2-2-2-2-2-4-3-2-2-2-2-2-2-2-2-2-6-5-2-2-2-2-2-2-2-2-2-4-3-2-2-2-2-2-2-2-2-2-2-4-4-4-
http://www.guitartabcreator.com
Guitar Tab Creator is intended to store guitar tab created through the tool. It currently does not support in-line text editing. Any text you place in here will be lost. If you need to comment on your tab, please use the "Tab Notes" section located below.