Here Comes The Pain

(/) Slide Up  (\) Slide Down  (h) Hammer On  (p) Pull Off  (b) Bend (r) Release (v) Vibrato


E|-------------------------------------
B|-------------------------------------
G|-------------------------------------
D|-------------------------------------
A|-----3---------3-3-3-----3---3-3-3-3-
E|-2-2---2-2-2-2-------2-2---2---------



E|-----------------------------------------------------------------------
B|-----------------------------------------------------------------------
G|-----------------------------------------------------------------------
D|-----------------------------------------------------------------------
A|-----3---------3-3-3-----3---3-3-3-3-----3---------3-3-3-----3---6-5-4-
E|-2-2---2-2-2-2-------2-2---2---------2-2---2-2-2-2-------2-2---2-------



E|---------------------------------------------------------------------
B|---------------------------------------------------------------------
G|---------------------------------------------------------------------
D|---------------------------------------------------------------------
A|-----3---------3-3-3-----3---3-3-3-3---3---------3-3-----3---6-6-6-6-
E|-2-2---2-2-2-2-------2-2---2---------2---2-2-2-2-----2-2---2---------



E|-------------------------------------------------------
B|-------------------------------------------------------
G|-------------------------------------------------------
D|-------------------------------------------------------
A|---------------------3-2-3-2---------------------------
E|-2-2-2-2-2-2-2-2-2-2---------2-2-2-2-2-2-2-2-2-2-6-5---



E|---------------------------------------------------------------
B|---------------------------------------------------------------
G|---------------------------------------------------------------
D|---------------------------------------------------------------
A|---------------------------------------------------------------
E|-2-2-2-2-2-2-2-2-3-3-3-3-3-3-3-3-6-5-2-2-2-2-2-2-3-3-3-3-3-3-1-



E|-------------------------------------------------------
B|-------------------------------------------------------
G|-------------------------------------------------------
D|-------------------------------------------------------
A|-------------------------------------------------------
E|-2-4-3-2-4-3-2-4-3-2-4-3-2-2-4-3-2-4-3-2-4-3-2-4-3-2-2-
http://www.guitartabcreator.com
Guitar Tab Creator is intended to store guitar tab created through the tool. It currently does not support in-line text editing. Any text you place in here will be lost. If you need to comment on your tab, please use the "Tab Notes" section located below.