Bruiser - Lake Of The Dead

(/) Slide Up  (\) Slide Down  (h) Hammer On  (p) Pull Off  (b) Bend (r) Release (v) Vibrato


E|-----------------------------------------------------
B|-----------------------------------------------------
G|-----------------------------------------------------
D|-----------------------------------------------------
A|-----------------------------------------------------
E|--0--0--0--3--0--0--0--3--0--0--0--3--0--0--6--6--6--



E|-----------------------------------------------------
B|-----------------------------------------------------
G|-----------------------------------------------------
D|-----------------------------------------------------
A|-----------------------------------------------------
E|--0--0--0--3--0--0--0--3--0--0--0--3--0--0--6--5--4--



E|--------------------------------------------------------------------------------------------------------
B|--------------------------------------------------------------------------------------------------------
G|--------------------------------------------------------------------------------------------------------
D|--------------------------------------------------------------------------------------------------------
A|--------------------------------------------------------------------------------------------0-----------
E|--0--0--0--3--0--0--0--3--0--0--0--3--0--0--6--6--6--0--0--0--3--0--0--0--3--0--0--0--3--0-----6--5--4--



E|-----------------------------------------------------
B|-----------------------------------------------------
G|-----------------------------------------------------
D|-----------------------------------------------------
A|-----------------------------------------------------
E|--0--0--0--3--0--0--0--3--0--0--0--3--0--0--6--6--6--



E|-----------------------------------------------------
B|-----------------------------------------------------
G|-----------------------------------------------------
D|-----------------------------------------------------
A|-----------------------------------------------------
E|--0--0--0--3--0--0--0--3--0--0--0--3--0--0--6--5--4--



E|--------------------------------------------------------------------------
B|--------------------------------------------------------------------------
G|--------------------------------------------------------------------------
D|--------------------------------------------------------------------------
A|--------------------------------------------------------4--4--4--3--3--3--
E|--6--5--4--6--5--4--2--2--2--3--2--2--2--3--2--2--2--3--------------------



E|-----------------------------------------------
B|-----------------------------------------------
G|-----------------------------------------------
D|-----------------------------------------------
A|--------------------------------------6--5--4--
E|--2--2--2--3--2--2--2--3--2--2--2--3-----------



E|--------------------------------------------------------------------
B|--------------------------------------------------------------------
G|--------------------------------------------------------------------
D|--------------------------------------------------------------------
A|-----------------------------5--5-----------------------------6--6--
E|--2--3--2--2--3--2--2--3--2--------2--3--2--2--3--2--2--3--2--------



E|-----------------------------------------------------------------------
B|-----------------------------------------------------------------------
G|-----------------------------------------------------------------------
D|-----------------------------------------------------------------------
A|--------------------------6--5--4--------------------------------------
E|--2--3--2--2--3--2--2--3-----------2--3--2--2--3--2--2--3--2--8--7--6--



E|--------------------------------------------------
B|--------------------------------------------------
G|--------------------------------------------------
D|--------------------------------------------------
A|--------------------------------------------------
E|--0--0--3--0--0--0--3--0--0--0--3--0--0--6--6--6--



E|-----------------------------------------------------
B|-----------------------------------------------------
G|-----------------------------------------------------
D|-----------------------------------------------------
A|-----------------------------------------------------
E|--0--0--0--3--0--0--0--3--0--0--0--3--0--0--6--5--4--



E|--------------------------------------------------------------------------------------------------------
B|--------------------------------------------------------------------------------------------------------
G|--------------------------------------------------------------------------------------------------------
D|--------------------------------------------------------------------------------------------------------
A|--------------------------------------------------------------------------------------------------------
E|--0--0--0--3--0--0--0--3--0--0--0--3--0--0--6--6--6--0--0--0--3--0--0--0--3--0--0--0--3--0--0--6--5--4--
http://www.guitartabcreator.com
Guitar Tab Creator is intended to store guitar tab created through the tool. It currently does not support in-line text editing. Any text you place in here will be lost. If you need to comment on your tab, please use the "Tab Notes" section located below.