Upon This Dawning - Of Human Action

(/) Slide Up  (\) Slide Down  (h) Hammer On  (p) Pull Off  (b) Bend (r) Release (v) Vibrato


D|---------------------------------------------------------------|
A|------------11-11------------6---------------------------------|
F|------------14-14------------9----------------1010101012121212-|
C|-------------------8-7-----------------------------------------| x 4
G|--0--------------------8-7--------------------8-8-8-8-10101010-|
C|--0--00000-----------------0-----00000-00000-------------------|

D|--8888888888881212121213131313--13--13--13--13-|
A|------------------------------17--17--17--17---|
F|-----------------------------------------------|
C|-----------------------------------------------|
G|-----------------------------------------------|
C|-----------------------------------------------|

D|--------------------------------------------------------------------------------------------
A|------66666666666666------666666-------------11-------66666666666666------111111111111111111
F|------99999999999999------999999-------------14-------99999999999999------141414141414141414
C|--------------------------------------------------------------------------------------------
G|--0-0-----------------0-0-------------------------0-0-----------------0-0-------------------
C|--0-0-----------------0-0--------0-3-2-0-3-0------0-0-----------------0-0-------------------

-----------|
1111111111-|
1414141414-|
-----------|
-----------|
-----------|

D|----------------|
A|----------------|
F|--10------------|
C|----(let ring)--|
G|--8-------------|
C|----------------|

D|------------------------------------------------------------------17171717171717171717171717
A|--1818181818181818181818181818181817171717171717171717171717171717--------------------------
F|--------------------------------------------------------------------------------------------
C|--------------------------------------------------------------------------------------------
G|--------------------------------------------------------------------------------------------
C|--------------------------------------------------------------------------------------------

171717----------------------------------0-0-0-0-0-0-8-0---------------------------|
------15151515151515151313131313131313-6-6-6-6-6-6---6----------------------------|
---------------------------------------------------------999999991010121212121212-|
----------------------------------------------------------------------------------| x 2
---------------------------------------------------------77777777-8-8101010101010-|
----------------------------------------------------------------------------------|

D|--------------------------|
A|--------------------------|
F|--------------------------|
C|--------------------------|
G|--------------------------|
C|--0-0-0------------0-0-0--|

D|-------------------------------------------------------------------------------------------
A|---------------------6----------------------------------------------------------------11(5)
F|-----------10--------9---------------10--------------------------------------10-------14---
C|-------------------------------------------------------------------------------------------
G|--0-0-0-----8--0-8-----007--0-0-0-----8--000012121212777710101010---0-0-0-----8--0-8-------
C|--0-0-0--0-----0-8-0---007--0-0-0--0--------------------------------0-0-0--0-----0-8-0-----

--------------------------------|
11(5)-----------------6---------|
14--------------14----9---------|
--------------------------------|
-------0-0-0----12--------8-7-3-|
-------0-0-0--0-----0---0-8-7-3-|

D|---------------------------------------------------------------------------------------------
A|---------------------------------------------------------------------------------------------
F|---------------------------------------------------------------------------------------------
C|---------------------------------------------------------------------------------------------
G|--0----0-0----0-000-0---0----0-0-----121288771010--------------------------------------------
C|--1----1-1----1-111-1---1----1-1----0--------------0--0-0-0---0--0--0-1p0-1p0--0--0-0-0---0--

--------------------------------------------------------------------|
--------------(6)---------------------------------------------------|
---------------9----------------------------------------------------|
------------6h8-----------------------------------------------------|
-----5h8p5p0------0----0-0----0-000-0---0----0-0-----121288771010---|
0--0--------------1----1-1----1-111-1---1----1-1----0-------------0-|

D|-------------------------------------------|
A|-------------------------------------------|
F|-------------------------------------------|
C|-------------------------------------------|
G|--------------------0-----------58554744---|
C|--0--111111110--0-0-0---0--0--00--------00-|

D|------------------0-0-0-0-8-0-0-0-0--------------------0-0-0-0-8-0-0-0-0-|
A|----------6------6-6-6-6---6-6-6-6------------11------6-6-6-6---6-6-6-6--|
F|--10------9---------------------------17------14-------------------------|
C|-------------------------------------------------------------------------|
G|---8----------------------------------15---------------------------------|
C|--------0---------------------------0-------0----------------------------|


D|------------------------------------------------------------------17171717171717171717171717
A|--1818181818181818181818181818181817171717171717171717171717171717--------------------------
F|--------------------------------------------------------------------------------------------
C|--------------------------------------------------------------------------------------------
G|--------------------------------------------------------------------------------------------
C|--------------------------------------------------------------------------------------------

171717----------------------------------0-0-0-0-0-0-8-0---------------------------|
------15151515151515151313131313131313-6-6-6-6-6-6---6----------------------------|
---------------------------------------------------------999999991010121212121212-|
----------------------------------------------------------------------------------| x 2
---------------------------------------------------------77777777-8-8101010101010-|
----------------------------------------------------------------------------------|

D|----------------|
A|----------------|
F|----------------|
C|----(let ring)--|
G|--8-------------|
C|--8-------------|

D|---------------------------------------------------------------------------------------------
A|------66666666666666------666666-------------11-------66666666666666------111111111111-------
F|------99999999999999------999999-------------14-------99999999999999------141414141414-------
C|---------------------------------------------------------------------------------------------
G|--0-0-----------------0-0-------------------------0-0-----------------0-0-----------------8-8
C|--0-0-----------------0-0--------0-3-2-0-3-0------0-0-----------------0-0---------------0-8-8

------------|
---1111-----|
---1414-----|
------------|
----------7-|
-0------0-7-|
Guitar Tab Creator is intended to store guitar tab created through the tool. It currently does not support in-line text editing. Any text you place in here will be lost. If you need to comment on your tab, please use the "Tab Notes" section located below.