My Savior's Love

(/) Slide Up  (\) Slide Down  (h) Hammer On  (p) Pull Off  (b) Bend (r) Release (v) Vibrato


E|---------------------------------------------------------------
B|-----------------------0---2---------------------------0-------
G|-------------------2-----------2---2---1---1---1---2-------2---
D|---2---2-------2-----------------------------------------------
A|-----------4---------------------------------------------------
E|---------------------------------------------------------------



E|---------------------------------------------------------------
B|-----------------------------------0---2---2---2---0---0-------
G|---------------2---1-----------2---------------------------2---
D|---2---4---4-----------4---2-----------------------------------
A|---------------------------------------------------------------
E|---------------------------------------------------------------



E|-------------------0---0---------------------------------------
B|---2---2---0---------------3---2---0---0---0---2---3---2---0---
G|---------------2-----------------------------------------------
D|---------------------------------------------------------------
A|---------------------------------------------------------------
E|---------------------------------------------------------------



E|-------------------0---0-------------------------------------------
B|---2---2---0---------------3---2---0---2---3---2---0---------------
G|---------------2---------------------------------------2---1---2---
D|-------------------------------------------------------------------
A|-------------------------------------------------------------------
E|-------------------------------------------------------------------
http://www.guitartabcreator.com
Guitar Tab Creator is intended to store guitar tab created through the tool. It currently does not support in-line text editing. Any text you place in here will be lost. If you need to comment on your tab, please use the "Tab Notes" section located below.