Blues lick 2

(/) Slide Up  (\) Slide Down  (h) Hammer On  (p) Pull Off  (b) Bend (r) Release (v) Vibrato

Stave 1:

E|-----------------------------------------
B|---------------3--3h5--3--------------0--
G|-------0--2/4-------------4\2p0----------
D|--0h2----------------------------2p1-----
A|-----------------------------------------
E|-----------------------------------------

Stave 2:

E|--------------------10-------------------10b11--11--
B|--8----8-----10b12----------8-----10b12-------------
G|----------7--------------------7--------------------
D|----------------------------------------------------
A|----------------------------------------------------
E|----------------------------------------------------

http://www.guitartabcreator.com
Guitar Tab Creator is intended to store guitar tab created through the tool. It currently does not support in-line text editing. Any text you place in here will be lost. If you need to comment on your tab, please use the "Tab Notes" section located below.