Fire of Unknown Origin

(/) Slide Up  (\) Slide Down  (h) Hammer On  (p) Pull Off  (b) Bend (r) Release (v) Vibrato

E|--------------
B|--------2-----
G|-----7--0--5--
D|--9--7--5--5--
A|--7--5--4--3--
E|--0-----------



E|--9-------9----------------------9---
B|--10--9---10----------9---9--10--10--
G|--11--9---9-----------9---9--9---11--
D|--11--11--11------11--11-----11--11--
A|--9---9---9---12------12-----9---9---
E|-------------------------------------
http://www.guitartabcreator.com
Guitar Tab Creator is intended to store guitar tab created through the tool. It currently does not support in-line text editing. Any text you place in here will be lost. If you need to comment on your tab, please use the "Tab Notes" section located below.