Fly

(/) Slide Up  (\) Slide Down  (h) Hammer On  (p) Pull Off  (b) Bend (r) Release (v) Vibrato


E|---------------------------------------------------------------------------------------------
B|---------------------------------------------------------------------------------------------
G|-10-10-10-10--10-10-10--10-10-10--10-10-10-10-10-10-10--10-10-10--10-10/15-14----------------
D|-------------------------------------------8--8--8--8---8--8--8---8--8--------15-15-15-15-15-
A|-8--8--8--8---8--8--8---8--8--8---8--8--8--8--8--8--8---8--8--8---8--8-----------13-13-13-13-
E|-------------------------------------------8--8--8--8---8--8--8---8--8-----------13-13-13-13-



E|---------------------------------------------------------------------------------------------
B|--------------------------------------------------10-10-10---------10-10-------10-10---------
G|--------------------------------------------------10-10-10---------10-10-------10-10---------
D|-15-15-15-15/17-15-14-5-5-5-5-5-8-8-8-8-8-8-0-0-0----------8-8-8-8-------8-8-8-------7-7-7-7-
A|-13-13-13-13----------5-5-5-5-5/8-8-8-8-8-8-0-0-0----------8-8-8-8-------8-8-8-------7-7-7-7-
E|-13-13-13-13----------5-5-5-5-5-8-8-8-8-8-8-0-0-0----------8-8-8-8-------8-8-8-------7-7-7-7-



E|-----------------------------------------------------------------------------------
B|-10-10-10-10-10-----10-10---------10-10--------------------------------------------
G|-10-10-10-10-10-----10-10---------10-10--------------------------------------------
D|----------------8-8-------8-8-8-8-------8-8-8-8-8-8-8-8-8-8-8-10-10-10-10-10-10-10-
A|----------------8-8-------8-8-8-8-------8-8-8-8-8-8-8-8-8-8-8-10-10-10-10-10-10-10-
E|----------------8-8-------8-8-8-8-------8-8-8-8-8-8-8-8-8-8-8-10-10-10-10-10-10-10-



E|---
B|---
G|---
D|-x-
A|-x-
E|-x-
http://www.guitartabcreator.com
Guitar Tab Creator is intended to store guitar tab created through the tool. It currently does not support in-line text editing. Any text you place in here will be lost. If you need to comment on your tab, please use the "Tab Notes" section located below.