Can I Say

(/) Slide Up  (\) Slide Down  (h) Hammer On  (p) Pull Off  (b) Bend (r) Release (v) Vibrato
E|-------------------------------------------------------------------------
B|-------------------------------------------------------------------------
G|-------------------------------------------------------------------------
D|-------------------------------------------------------------------------
A|---------------------------------------------------------------5---------
E|--0--0h3p0h5p0--0--0--0h3p0h5p0--0--0--0h3p0h5p0--0--0--0h3h5-----5p3p0--



E|--------------------------------------------------------|--
B|--------------------------------------------------------|--
G|--------------------------------------------------------|--
D|--------------------------------------------------------|--
A|--------------------------------------------------------|--
E|--0--0h3p0h5p0--0--0--0h3p0h5p0--0--0--0h3p0h5p0--0--0--|--



E|---------------------------------------------------------
B|---------------------------------------------------------
G|---------------------------------------------------------
D|-0-0-3-0-5-0-0-0-0-3-0-5-0-0-0-0-3-0-5-0-0-0-0-----------
A|-0-0-3-0-5-0-0-0-0-3-0-5-0-0-0-0-3-0-5-0-0-0-0-----3-----
E|-0-0-3-0-5-0-0-0-0-3-0-5-0-0-0-0-3-0-5-0-0-0-0-3-5---5-3-



E|-----------------------------------------------------------------
B|-------------------------------------------6-6--6-6--8-8--8-8-10-
G|-----------------------------------------------------------------
D|-0-0-3-0-5-0-0-0-0-3-0-5-0-0-0-0-3-0-5-0-0-5-5--5-5--7-7--7-7-9--
A|-0-0-3-0-5-0-0-0-0-3-0-5-0-0-0-0-3-0-5-0-0-----------------------
E|-0-0-3-0-5-0-0-0-0-3-0-5-0-0-0-0-3-0-5-0-0-----------------------



E|-------------------------------------------
B|-------------------------------------------
G|-------------------------------------------
D|-0-0-5-5-5-8-8-8-8-8----0-0-0-0----0-0-0-0-
A|-0-0-5-5-5-8-8-8-8-8----0-0-0-0----0-0-0-0-
E|-0-0-5-5-5-8-8-8-8-8-10b0-0-0-0-10b0-0-0-0-



E|---------------------------------------------
B|---------------------------------------------
G|---------------------------------------------
D|-0-0-5-5-5-8-8-8-8-8-8----0-0-0-0----0-0-0-0-
A|-0-0-5-5-5-8-8-8-8-8-8----0-0-0-0----0-0-0-0-
E|-0-0-5-5-5-8-8-8-8-8-8-10b0-0-0-0-10b0-0-0-0-



E|-------------------------------------------------------------
B|-------------------------------------------------------------
G|-------------------------------------------------------------
D|-0-0-5-5-5-8-8-8-8-15-10-10-12-12-12-12-10-10-12p10----------
A|-0-0-5-5-5-8-8-8-8-15-10-10-12-12-12-12-10-10-------12p10----
E|-0-0-5-5-5-8-8-8-8-15-10-10-12-12-12-12-10-10-------------12-



E|-----------------------------------------------
B|-----------------------------------------------
G|-----------------------------------------------
D|-0-0-5-5-5-8-8-8-8-8-8----0-0-0-0----0-0-0-0---
A|-0-0-5-5-5-8-8-8-8-8-8----0-0-0-0----0-0-0-0---
E|-0-0-5-5-5-8-8-8-8-8-8-10b0-0-0-0-10b0-0-0-0---



E|-------------------------------------------------------
B|-------------------------------------------------------
G|------------------------------------------7-7-7--7-7-7-
D|-9-9--9--9--9--9--9--9-9-9--5-5-5--5-5-5--5-5-5--5-5-5-
A|-7-7--7--7--7--7--7--7-7-7--3-3-3--3-3-3--5-5-5--5-5-5-
E|------------------------------------------5-5-5--5-5-5-



E|---------------------------------------------------------------------------------
B|---------------------------------------------------------------------------------
G|------------------------------------------7-7-7-7-7-7-7-7--7-7-7-7-7--7-7-7-7----
D|-9-9--9--9--9--9--9--9-9-9--5-5-5--5-5-5--5-5-5-5-5-5-5-5--5-5-5-5-5--5-5-5-5----
A|-7-7--7--7--7--7--7--7-7-7--3-3-3--3-3-3--5-5-5-5-5-5-5-5--5-5-5-5-5--5-5-5-5----
E|------------------------------------------5-5-5-5-5-5-5-5--5-5-5-5-5--5-5-5-5----



E|--------------------------
B|--------------------------
G|-7-7-7-7-7-7-7------------
D|-5-5-0-0-0-0-0--9-9-9-9-5-
A|-5-5-0-0-0-0-0--9-9-9-9-5-
E|-5-5-0-0-0-0-0--9-9-9-9-5-



E|--------------------------------------------------
B|--------------------------------------------------
G|-7-7-7-7-7--7-7-7-7--7-7-7-7-7-7-7----------------
D|-5-5-5-5-5--5-5-5-5--5-5-0-0-0-0-0--9-9-9-9-5-5-0-
A|-5-5-5-5-5--5-5-5-5--5-5-0-0-0-0-0--9-9-9-9-5-5-0-
E|-5-5-5-5-5--5-5-5-5--5-5-0-0-0-0-0--9-9-9-9-5-5-0-



E|----------------------------------------------------------------------------------
B|----------------------------------------------------------------------------------
G|----------------------------------------------------------------------------------
D|-0--2-------2--3-------3--5-5-5--5-5--5-5--7--7-7-7-7-7-8--8-8-8-8-10--5-3-0--0-0-
A|-0--2-------2--3-------3--5-5-5--5-5--5-5--7--7-7-7-7-7-8--8-8-8-8-10--5-3-0--0-0-
E|-0--2-------2--3-------3--5-5-5--5-5--5-5--7--7-7-7-7-7-8--8-8-8-8-10--5-3-0--0-0-



E|----------------------------------------------------------------------------------
B|-------------------------------------------------11--11-11-11-11-11/13------------
G|------------------------------------9--9-9-9-9-9-10--10-10-10-10------------------
D|-0-0-0-3-3-3--3--3--3--5--5-5-5-5-5-7--7-7-7-7-7-8---8--8--8--8--------5-3-0--0-0-
A|-0-0-0-3-3-3--3--3--3--5--5-5-5-5-5-7--7-7-7-7-7-8---8--8--8--8--------5-3-0--0-0-
E|-0-0-0-3-3-3--3--3--3--5--5-5-5-5-5-7--7-7-7-7-7-8---8--8--8--8--------5-3-0--0-0-



E|----------------------------------------------------------------------------------
B|----------------------------------------------------------------------------------
G|--------------------------------------7--7--7--7--7-7-7-7--7--7--7--7--7-7-7-7----
D|-0-0-0-0-3-3-3--3--3--3--5--5-5-5-5-5-5--5--5--5--5-5-5-5--0--0--0--0--0-0-0-0----
A|-0-0-0-0-3-3-3--3--3--3--5--5-5-5-5-5-5--5--5--5--5-5-5-5--0--0--0--0--0-0-0-0----
E|-0-0-0-0-3-3-3--3--3--3--5--5-5-5-5-5-5--5--5--5--5-5-5-5--0--0--0--0--0-0-0-0----



E|------------------------------------------------------------------------------
B|------------------------------------------------------------------------------
G|-7--7--7-----------7--7--7--7--7-7-7-7--7--7--7--7--7-7-7-7--7--7--7----------
D|-9--9--9--5--5-12--5--5--5--5--5-5-5-5--0--0--0--0--0-0-0-0--9--9--9--5--5-12-
A|-9--9--9--5--5-12--5--5--5--5--5-5-5-5--0--0--0--0--0-0-0-0--9--9--9--5--5-12-
E|-9--9--9--5--5-12--5--5--5--5--5-5-5-5--0--0--0--0--0-0-0-0--9--9--9--5--5-12-



E|-------------------------------------------------------------------------------------|-
B|----------------------------------------------------------------------------9-10-9---|-
G|-4\7-7-7-7-7-7-7-7-7-7-7-7-6----------------4\7-7-7-7-7-7-7-7-6-7-9-9-9-9-9--------9-|-
D|-----------------------------7--7-7-7-7---7------------------------------------------|-
A|----------------------------------------9--------------------------------------------|-
E|-------------------------------------------------------------------------------------|-



E|----------------------------------------------------------------------------------
B|----------------------------------------------------------------------------------
G|----------------------------------------------------------------------------------
D|----------------10----------------------12----------------------10-------12-------
A|-10\12-12-10-12----12-10-10\12-12-10-12----12-10-10-12-12-10-12----12-10----12-10-
E|----------------------------------------------------------------------------------



E|--------------------------------------------------------------------------------------
B|-------------------------------------------------------------12\18v-17h18p17h18p17h18-
G|-------------------------------------------------------12\17--------------------------
D|-12\13-12----------12\13-12----------12\13-12-----------------------------------------
A|----------12-15-12----------12-15-12----------12-15-12--------------------------------
E|--------------------------------------------------------------------------------------



E|----------------------------------------------------------------------------------------
B|-15h17p15h17p15h17-13h15p13h15p13h15-12h13p12h13p12h13----------------------------------
G|-------------------------------------------------------14-12----12-14-12----12-14b12-12-
D|-------------------------------------------------------------14----------14-------------
A|----------------------------------------------------------------------------------------
E|----------------------------------------------------------------------------------------
http://www.guitartabcreator.com
Guitar Tab Creator is intended to store guitar tab created through the tool. It currently does not support in-line text editing. Any text you place in here will be lost. If you need to comment on your tab, please use the "Tab Notes" section located below.