You Above

(/) Slide Up  (\) Slide Down  (h) Hammer On  (p) Pull Off  (b) Bend (r) Release (v) Vibrato


E|-------------------------------------------------0h2p0--------------------------
B|----------------------------0h2p0-------------3---------3-----------------------
G|----------2h4p2----------2---------2-----------------------2------------0h1-----
D|-------4---------4--------------------2----------------------------0h2-------2--
A|--0h2-----------------0-----------------------------------------2---------------
E|-------------------------------------------2------------------------------------



E|-----2-----0-----2-----0-----
B|-----2-----0-----3-----0-----
G|-----4-----2-----2-----1-----
D|-----4-----2-----0-----2-----
A|-----2-----2-----0-----2-----
E|-----0-----0-----2-----0-----



E|-----2-----0-----
B|-----3-----0-----
G|-----2-----1-----
D|-----0-----2-----
A|-----0-----2-----
E|-----2-----0-----



E|-----2-----2-----0-----0-----
B|-----2-----2-----0-----0-----
G|-----4-----2-----2-----1-----
D|-----4-----4-----2-----2-----
A|-----2-----4-----2-----2-----
E|-----------2-----0-----0-----



E|-----0-----0-----2-----3-----3-----3-----3-----
B|-----0-----0-----3-----3-----3-----3-----3-----
G|-----1-----2-----2-----0-----0-----0-----0-----
D|-----2-----2-----0-----2-----0-----2-----0-----
A|-----2-----2-----0-----3-----2-----3-----2-----
E|-----0-----0-----2-----------3-----------3-----
http://www.guitartabcreator.com
Guitar Tab Creator is intended to store guitar tab created through the tool. It currently does not support in-line text editing. Any text you place in here will be lost. If you need to comment on your tab, please use the "Tab Notes" section located below.