Precious Gift

(/) Slide Up  (\) Slide Down  (h) Hammer On  (p) Pull Off  (b) Bend (r) Release (v) Vibrato
E|--------------------------------------------------------------------------------
B|--------7-----------7--7--9--5--2--2--0--0--------7-----------7--7--5--2--------
G|-----9-----------9-----------------2--2--------9-----------9--------------4--4--
D|-----9--------9--------------------2--2--------9--------9-----------------4--4--
A|--7--------7--------------------------------7--------7--------------------2--2--
E|--------------------------------------------------------------------------------



E|----------7-----2-----4-----0-----0-----0-----
B|----------7-----2-----5-----2-----0-----2-----
G|----------9-----4-----6-----2-----2-----2-----
D|----------9-----4-----6-----2-----2-----2-----
A|----------7-----2-----4-----0-----0-----0-----
E|----------------------------0-----0-----0-----



E|-----7-----4-----2-----0-----------
B|-----7-----5-----2-----0-----------
G|-----9-----6-----4-----2-----------
D|-----9-----6-----4-----2-----------
A|-----7-----4-----2-----0-----------
E|-----------------------0-----------



E|-----7-----2-----4-----0-----0-----0-----------
B|-----7-----2-----5-----2-----0-----2-----------
G|-----9-----4-----6-----2-----2-----2-----------
D|-----9-----4-----6-----2-----2-----2-----------
A|-----7-----2-----4-----0-----0-----0-----------
E|-----------------------0-----0-----0-----------



E|-----0-----0-----0-----0-----
B|-----0-----2-----0-----2-----
G|-----1-----2-----1-----2-----
D|-----2-----2-----2-----2-----
A|-----2-----0-----2-----0-----
E|-----0-----0-----0-----0-----



E|-----------------------------------0--0-----------------------------------------
B|--------7-----------7--7--9--5--2--2--0--0--------7-----------7--7--9--5--2-----
G|-----9-----------9-----------------2--2--------9-----------9--------------2--4--
D|-----9--------9--------------------2--2--------9--------9-----------------2--4--
A|--7--------7-----------------------0--0-----7--------7-----------------------2--
E|-----------------------------------0--0-----------------------------------------



E|-----4-----4-----2-----0-----
B|-----5-----4-----4-----2-----
G|-----6-----4-----2-----2-----
D|-----6-----6-----4-----2-----
A|-----4-----6-----2-----0-----
E|-----------4-----------0-----



E|-----4-----4-----2-----0-----0-----
B|-----5-----4-----2-----0-----2-----
G|-----6-----4-----4-----1-----2-----
D|-----6-----6-----4-----2-----2-----
A|-----4-----6-----2-----2-----0-----
E|-----------4-----------0-----0-----



E|-----4-----4-----2-----0-----------
B|-----5-----4-----4-----2-----------
G|-----6-----4-----2-----2-----------
D|-----6-----6-----4-----2-----------
A|-----4-----6-----2-----0-----------
E|-----------4-----------0-----------



E|--2--0--2--0--
B|--2--0--2--0--
G|--2--2--2--2--
D|--4--2--4--2--
A|--4--0--4--0--
E|--2--0--2--0--
http://www.guitartabcreator.com
Guitar Tab Creator is intended to store guitar tab created through the tool. It currently does not support in-line text editing. Any text you place in here will be lost. If you need to comment on your tab, please use the "Tab Notes" section located below.