Pick Me Up

(/) Slide Up  (\) Slide Down  (h) Hammer On  (p) Pull Off  (b) Bend (r) Release (v) Vibrato
E|-----------------------------------------------
B|-----------------0-------------1-----------2h3-
G|-----0-------0-----0-------0-----2-------4-----
D|---2---2-----0h2-----2p0---0h2-----2p0---4-----
A|---2-----2-3-------------0-------------2-------
E|-0---------------------------------------------



E|---------------------------------------------
B|-----------------1---------0-----------0-----
G|-----0-------0-----0-----2---2-----0-----0---
D|---2---2-----0h2-----2---2-----2---0h2-----2-
A|---2-----2-3-----------0---------3-----------
E|-0-------------------------------------------



E|-----0-----0-----0-----
B|-----0-----1-----1-----
G|-----0-----0-----2-----
D|-----2-----2-----2-----
A|-----2-----3-----0-----
E|-----0-----------------



E|-----0-----0-----0-----
B|-----0-----1-----1-----
G|-----0-----0-----2-----
D|-----2-----2-----2-----
A|-----2-----3-----0-----
E|-----0-----------------



E|--0--0--0--0--------0--0--0--0--------0--0--0--0--------0--0--0--
B|--0--1--1--0--------1--1--1--1--------0--1--1--0--------1--1--0--
G|--0--0--2--0--------0--2--0--2--------0--0--2--0--------0--2--0--
D|--2--2--2--2--------2--2--2--2--------2--2--2--2--------2--2--2--
A|--2--3--0--2--------3--0--3--0--------2--3--0--2--------3--0--2--
E|--0--------0--------------------------0--------0--------------0--



E|-----0-----0-----0-----
B|-----0-----1-----1-----
G|-----0-----0-----2-----
D|-----2-----2-----2-----
A|-----2-----3-----0-----
E|-----0-----------------
http://www.guitartabcreator.com
Guitar Tab Creator is intended to store guitar tab created through the tool. It currently does not support in-line text editing. Any text you place in here will be lost. If you need to comment on your tab, please use the "Tab Notes" section located below.