scale

(/) Slide Up  (\) Slide Down  (h) Hammer On  (p) Pull Off  (b) Bend (r) Release (v) Vibrato


E|--------------------------------2--5--
B|--------------------------2--5--------
G|--------------------2--4--------------
D|--------------2--4--------------------
A|--------2--4--------------------------
E|--2--5--------------------------------



E|--------------------------------2--4--
B|--------------------------2--4--------
G|--------------------1--4--------------
D|--------------1--4--------------------
A|--------2--4--------------------------
E|--2--4--------------------------------



E|--------------------------------0--3--
B|--------------------------1--3--------
G|--------------------0--2--------------
D|--------------0--2--------------------
A|--------0--3--------------------------
E|--0--3--------------------------------



E|--------------------------------2--5--
B|--------------------------3--5--------
G|--------------------2--4--------------
D|--------------2--4--------------------
A|--------2--5--------------------------
E|--2--5--------------------------------



E|--------------------------------2--4--
B|--------------------------2--5--------
G|--------------------1--4--------------
D|--------------2--4--------------------
A|--------2--4--------------------------
E|--2--4--------------------------------



E|--------------------------------1--3--
B|--------------------------1--3--------
G|--------------------0--2--------------
D|--------------0--3--------------------
A|--------0--3--------------------------
E|--1--3--------------------------------



E|--------------------------------0--3--
B|--------------------------0--3--------
G|--------------------0--2--------------
D|--------------0--2--------------------
A|--------0--2--------------------------
E|--0--3--------------------------------
http://www.guitartabcreator.com
Guitar Tab Creator is intended to store guitar tab created through the tool. It currently does not support in-line text editing. Any text you place in here will be lost. If you need to comment on your tab, please use the "Tab Notes" section located below.