The Mind Of A Schizophrenic (killerriff) verse1

(/) Slide Up  (\) Slide Down  (h) Hammer On  (p) Pull Off  (b) Bend (r) Release (v) Vibrato

Stave 1:

E|-----------------------------------------------------------
B|-----------------------------------------------------------
G|--------------------------------7--6--5--------------------
D|-----------------------------------------7--6--5-----------
A|--0--0--0--0--0--0--0--0--0--0-----------------------------
E|-----------------------------------------------------------

Stave 2:

E|--------------------------------------------------------
B|--------------------------------------------------------
G|--------------------------------------------------------
D|-----------------------------------------7-----8-----9--
A|--0--0--0--0--0--0--0--0-----8-----9--5-----6-----7-----
E|--------------------------6-----7-----------------------

http://www.guitartabcreator.com
Guitar Tab Creator is intended to store guitar tab created through the tool. It currently does not support in-line text editing. Any text you place in here will be lost. If you need to comment on your tab, please use the "Tab Notes" section located below.