The Mind Of A Schizophrenic

(/) Slide Up  (\) Slide Down  (h) Hammer On  (p) Pull Off  (b) Bend (r) Release (v) Vibrato

Stave 1:

E|--------------------------------
B|--------------------------------
G|-----------------------------5--
D|--------4--------------4--------
A|-----4-----4--3-----4-----4-----
E|--2--------------2--------------

Stave 2:

E|--------------------------------------
B|----------------------------------13--
G|--------11----------------11----------
D|------------11--10------------11------
A|-----4-----------------4--------------
E|--2-----------------2-----------------

http://www.guitartabcreator.com
Guitar Tab Creator is intended to store guitar tab created through the tool. It currently does not support in-line text editing. Any text you place in here will be lost. If you need to comment on your tab, please use the "Tab Notes" section located below.