Will the Circle Be Unbroken

(/) Slide Up  (\) Slide Down  (h) Hammer On  (p) Pull Off  (b) Bend (r) Release (v) Vibrato


E|--------------7---------7--7---------------------------------
B|--------8--8-----10--8--------10--8-----8--8-----------------
G|--7--9-------------------------------9--------9--7--7--7--9--
D|-------------------------------------------------------------
A|-------------------------------------------------------------
E|-------------------------------------------------------------



E|--------7--8--10--7---------7----------------
B|--8--8---------------8--10-----8--10--10--8--
G|---------------------------------------------
D|---------------------------------------------
A|---------------------------------------------
E|---------------------------------------------
http://www.guitartabcreator.com
Guitar Tab Creator is intended to store guitar tab created through the tool. It currently does not support in-line text editing. Any text you place in here will be lost. If you need to comment on your tab, please use the "Tab Notes" section located below.