So nice

(/) Slide Up  (\) Slide Down  (h) Hammer On  (p) Pull Off  (b) Bend (r) Release (v) Vibrato

After 1st chorus
E|--------------
B|--------------
G|--------------
D|--------------
A|--------------
E|--7--5--3--5--

Verse

E|-----------------------------
B|-----------------------------
G|-----------------------------
D|-----------------------------
A|-----------------------------
E|--7--5--3--5--6--7--5--3--5--

Chorus

E|-----------------------------------
B|-----------------------------------
G|-----------------------------------
D|-----------------------------------
A|-----------------------------------
E|--3--5--7--3--5--7--3--5--7--3--5--

Middle 8

E|-----------------------------
B|-----------------------------
G|-----------------------------
D|-----------------------------
A|-----------------------------
E|--7--2--3--5--6--7--2--3--5--

"If I don't know you"

E|-----------------------
B|-----------------------
G|-----------------------
D|-----------------------
A|-----------------------
E|--7--2--3--7--2--3--5--


"So nice to meet you..."
E|-----------------------
B|-----------------------
G|-----------------------
D|-----------------------
A|-----------------------
E|--3--5--7--3--5--7--5--




http://www.guitartabcreator.com
Guitar Tab Creator is intended to store guitar tab created through the tool. It currently does not support in-line text editing. Any text you place in here will be lost. If you need to comment on your tab, please use the "Tab Notes" section located below.