So Much

(/) Slide Up  (\) Slide Down  (h) Hammer On  (p) Pull Off  (b) Bend (r) Release (v) Vibrato

Verse
E|-----------
B|-----------
G|-----------
D|-----------
A|-----------
D|--5--7--3--


Chorus
E|--------------
B|--------------
G|--------------
D|--------------
A|--3-----------
D|-----5--7--3--

End of chorus and Middle 8

E|-----------
B|-----------
G|-----------
D|-----------
A|-----------
D|--2--3--5--


Before the 2nd verse
E|--------------
B|--------------
G|--------------
D|--------------
A|--------------
D|--2--3--7--5--
http://www.guitartabcreator.com
Guitar Tab Creator is intended to store guitar tab created through the tool. It currently does not support in-line text editing. Any text you place in here will be lost. If you need to comment on your tab, please use the "Tab Notes" section located below.