Blame

(/) Slide Up  (\) Slide Down  (h) Hammer On  (p) Pull Off  (b) Bend (r) Release (v) Vibrato

Intro (and after the 1st chorus)
E|-----------
B|-----------
G|-----------
D|-----------
A|--3--5--1--
E|-----------

Verse

E|-----------
B|-----------
G|-----------
D|-----------
A|--5--0--1--
E|-----------

Chorus

E|--------------------
B|--------------------
G|--------------------
D|--------------------
A|--3--5--1--5--0--1--
E|--------------------

Middle 8

E|-----------
B|-----------
G|-----------
D|-----------
A|--5--3--1--
E|-----------
http://www.guitartabcreator.com
Guitar Tab Creator is intended to store guitar tab created through the tool. It currently does not support in-line text editing. Any text you place in here will be lost. If you need to comment on your tab, please use the "Tab Notes" section located below.