All For You

(/) Slide Up  (\) Slide Down  (h) Hammer On  (p) Pull Off  (b) Bend (r) Release (v) Vibrato

Intro

E|-----------------------
B|-----------------------
G|-----------------------
D|-----------------------
A|-----------6-----------
D|--5--7--8-----5--3--1--

Verse/Chorus

E|--------------
B|--------------
G|--------------
D|--------------
A|--1-----------
D|-----1--5--7--

End of Chorus

E|--------
B|--------
G|--------
D|--------
A|--------
D|--1--3--

Middle 8

E|-----------
B|-----------
G|-----------
D|-----------
A|-----------
D|--1--3--5--
http://www.guitartabcreator.com
Guitar Tab Creator is intended to store guitar tab created through the tool. It currently does not support in-line text editing. Any text you place in here will be lost. If you need to comment on your tab, please use the "Tab Notes" section located below.