Я сюда ещё вернусь

(/) Slide Up  (\) Slide Down  (h) Hammer On  (p) Pull Off  (b) Bend (r) Release (v) Vibrato


E|--------0--------------0--------------2--------------2--------2--------
B|--------2--------------2--------------2--------------2--------2--------
G|-----2--------2-----2--------2-----3--------3-----2--------2--------3--
D|--------------------------------------------------------4--------------
A|--0--------0-----0--------0--------------------4-----------------------
E|--------------------------------2--------2-----------------------2-----



E|--------2--------------1--------------0--------------0-------
B|--------3--------------3--------------2--------------2-------
G|-----2--------2-----2--------2-----2--------2-----2-------2--
D|--0--------0-----0--------0----------------------------------
A|--------------------------------0--------0-----0--------0----
E|-------------------------------------------------------------
http://www.guitartabcreator.com
Guitar Tab Creator is intended to store guitar tab created through the tool. It currently does not support in-line text editing. Any text you place in here will be lost. If you need to comment on your tab, please use the "Tab Notes" section located below.