A Minor Pentatonic Shape #3

(/) Slide Up  (\) Slide Down  (h) Hammer On  (p) Pull Off  (b) Bend (r) Release (v) Vibrato

Stave 1:

E|--------------------------------------------------------------------------10-----12-----
B|------------------------------------------------------------10-----13-------------------
G|-----------------------------------------------9-----12---------------------------------
D|---------------------------------10-----12----------------------------------------------
A|-------------------10-----12------------------------------------------------------------
E|-----10-----12--------------------------------------------------------------------------

Stave 2:

E|-----12-----10--------------------------------------------------------------------------
B|-------------------13-----10------------------------------------------------------------
G|---------------------------------12-----9-----------------------------------------------
D|----------------------------------------------12-----10---------------------------------
A|------------------------------------------------------------12-----10-------------------
E|--------------------------------------------------------------------------12-----10-----

http://www.guitartabcreator.com
Guitar Tab Creator is intended to store guitar tab created through the tool. It currently does not support in-line text editing. Any text you place in here will be lost. If you need to comment on your tab, please use the "Tab Notes" section located below.