A Minor Pentatonic Shape #2

(/) Slide Up  (\) Slide Down  (h) Hammer On  (p) Pull Off  (b) Bend (r) Release (v) Vibrato

Stave 1:

E|---------------------------------------------------------------------8-----10-----
B|--------------------------------------------------------8-----10------------------
G|--------------------------------------------7-----9-------------------------------
D|-------------------------------7-----10-------------------------------------------
A|------------------7-----10--------------------------------------------------------
E|-----8-----10---------------------------------------------------------------------

Stave 2:

E|-----10-----8---------------------------------------------------------------------
B|------------------10-----8--------------------------------------------------------
G|-------------------------------9-----7--------------------------------------------
D|-------------------------------------------10-----7-------------------------------
A|--------------------------------------------------------10-----7------------------
E|---------------------------------------------------------------------10-----8-----

http://www.guitartabcreator.com
Guitar Tab Creator is intended to store guitar tab created through the tool. It currently does not support in-line text editing. Any text you place in here will be lost. If you need to comment on your tab, please use the "Tab Notes" section located below.