Carol of The Bells - Trans Siberian Orchestra

(/) Slide Up  (\) Slide Down  (h) Hammer On  (p) Pull Off  (b) Bend (r) Release (v) Vibrato

E|--------------------------------
B|--------------------------------
G|-----9--12--11-------9--12--11--
D|--9---------------9-------------
A|--------------------------------
E|--------------------------------



E|----------------------------------------------------------------------------------------------------------------------
B|----------------------------------------------------------------------------------------------------------------------
G|----------------------------------------------------------------------------------------------------------------------
D|--------9--9--7--------------------------7--9----------9--9--7---------------------------9--9--7----------------------
A|-----7-----------10--9--7------7--9--10-------------7-----------10--9--7------7-------7-----------10--9--7------7--5--
E|--7------------------------10--------------------7------------------------10-------7------------------------10--------



E|----------------------------------------------
B|----------------------------------------------
G|--9--7------------------9--7------------------
D|--------10--9--------2--------10--9--------2--
A|------------------2---------------------2-----
E|---------------0---------------------0--------



E|----------------------------------------------------------------------------------------------------------------
B|--8--7--8-----8--7--8-----8--7--8-----8--7--8-------12--10--12------12--10--12------12--10--12------12--10------
G|-----------9-----------9-----------9-----------9----------------12--------------12--------------12----------12--
D|----------------------------------------------------------------------------------------------------------------
A|----------------------------------------------------------------------------------------------------------------
E|----------------------------------------------------------------------------------------------------------------



E|--12--12--12--10-------------------------------------------------------
B|------------------13--12--12--12--10------10--10--10--12--10-----------
G|--------------------------------------12----------------------9--9--9--
D|-----------------------------------------------------------------------
A|-----------------------------------------------------------------------
E|-----------------------------------------------------------------------



E|------------------------------------------------------------------------------
B|------------------------10--12--10----------------------------10--12--10------
G|-------------9--11--12--------------12-------------9--11--12--------------12--
D|--9--11--12-----------------------------9--11--12-----------------------------
A|------------------------------------------------------------------------------
E|------------------------------------------------------------------------------



E|------------------------------------------------------------------------------------------12--
B|----------------------------------------------------------------------------------------------
G|-------------9--11--12-------------9--11--12-------------9--11--12-------------9--11--12------
D|--9--11--12-------------9--11--12-------------9--11--12-------------9--11--12-----------------
A|----------------------------------------------------------------------------------------------
E|----------------------------------------------------------------------------------------------



E|------------------------------------------------------
B|------------------------------------------------------
G|--9--9--7---------------------------------------------
D|-----------10--10--9--7--9--7----------------------2--
A|-------------------------------10--10--9--7-----2-----
E|---------------------------------------------0--------
http://www.guitartabcreator.com
Guitar Tab Creator is intended to store guitar tab created through the tool. It currently does not support in-line text editing. Any text you place in here will be lost. If you need to comment on your tab, please use the "Tab Notes" section located below.