Baby, save me

(/) Slide Up  (\) Slide Down  (h) Hammer On  (p) Pull Off  (b) Bend (r) Release (v) Vibrato


E|-----------------------------------------
B|--1-----------5-----------9--------------
G|-----2-----------6-----------10----------
D|--------3-----------7------------11------
A|-----------4-----------8-------------12--
E|-----------------------------------------



E|--------------------------------------
B|--1-----------4-----------7-----------
G|-----1-----------4-----------7--------
D|--------2-----------5-----------8-----
A|-----------3-----------6-----------9--
E|--------------------------------------
http://www.guitartabcreator.com
Guitar Tab Creator is intended to store guitar tab created through the tool. It currently does not support in-line text editing. Any text you place in here will be lost. If you need to comment on your tab, please use the "Tab Notes" section located below.