Norwegian Wood DADGAD

(/) Slide Up  (\) Slide Down  (h) Hammer On  (p) Pull Off  (b) Bend (r) Release (v) Vibrato


E|-----------------------------------------
B|-----------------------------------------
G|--2--4--2--0--------0-----------0--------
D|--------------4--2-----4--0--------------
A|-----------------------------3-----2--0--
E|-----------------------------------------



E|-----------------
B|-----------------
G|--2--4--2--0-----
D|--------------4--
A|-----------------
E|-----------------



E|--------------
B|--------------
G|-----0--------
D|--2-----4--0--
A|--------------
E|--------------



E|--------------
B|--------------
G|-----0--------
D|--------------
A|--2-----1--0--
E|--------------
http://www.guitartabcreator.com
Guitar Tab Creator is intended to store guitar tab created through the tool. It currently does not support in-line text editing. Any text you place in here will be lost. If you need to comment on your tab, please use the "Tab Notes" section located below.