The Devil Inside

(/) Slide Up  (\) Slide Down  (h) Hammer On  (p) Pull Off  (b) Bend (r) Release (v) Vibrato


E|--------------------------------------------------------------------------------------------------
B|--------------------------------------------------------------------------------------------------
G|--------0-----------0-----------0-----------0-----------0-----------0-----------0-----------0-----
D|-----3-----3-----5-----5-----7-----7-----7-----7-----3-----3-----5-----5-----7-----7-----7-----7--
A|--1-----------3-----------5-----------5-----------1-----------3-----------5-----------5-----------
E|--------------------------------------------------------------------------------------------------



E|--------------------------|-----
B|--------------------------|-----
G|--------0-----------0-----|-----
D|-----3-----3-----5-----5--|-----
A|--1-----------3-----------|-----
E|--------------------------|-----



E|-----------------------------------------------|--
B|-----------------------------------------------|--
G|-----------------------------------------------|--
D|--3--3--3--5--5--5--7--7--7--5--5--5--3--3--5--|--
A|--1--1--1--3--3--3--5--5--5--3--3--3--1--1--3--|--
E|-----------------------------------------------|--



E|-----------------------------------------------
B|-----------------------------------------------
G|-----------5--5--5-----------------------------
D|--3--3--3--3--3--3--7--7--7--5--5--5--3--3--5--
A|--1--1--1-----------5--5--5--3--3--3--1--1--3--
E|-----------------------------------------------



E|--
B|--
G|--
D|--
A|--
E|--
http://www.guitartabcreator.com
Guitar Tab Creator is intended to store guitar tab created through the tool. It currently does not support in-line text editing. Any text you place in here will be lost. If you need to comment on your tab, please use the "Tab Notes" section located below.