New project riff idea one (possible intro or cool tie in sections)

(/) Slide Up  (\) Slide Down  (h) Hammer On  (p) Pull Off  (b) Bend (r) Release (v) Vibrato

E|--------------------------------------------------------------------------------
B|--------------------------------------------------------------------------------
G|-----------------4----5----------------------------------0----1-----------------
D|------------7--------------7------------------------3--------------3------------
A|-------7------------------------7--------------3------------------------3-------
E|--5----------------------------------5----1----------------------------------1--



E|------------------------------------------------------------------------------------
B|------------------------------------------------------------------------------------
G|-----------------4----5------------------------------------7----8-------------------
D|------------7--------------7-------------------------10--------------10-------------
A|-------7------------------------7--------------10--------------------------10-------
E|--5----------------------------------5----8--------------------------------------8--



E|--------------------------------------------------------------------------------
B|--------------------------------------------------------------------------------
G|-----------------4----5----------------------------------0----1-----------------
D|------------7--------------7------------------------3--------------3------------
A|-------7------------------------7--------------3------------------------3-------
E|--5----------------------------------5----1----------------------------------1--



E|--------------------------------------------------------------------------------------------
B|--------------------------------------------------------------------------------------------
G|-------------------7----8---------------------------------------10----11--------------------
D|-------------10--------------10---------------------------13----------------13--------------
A|-------10--------------------------10---------------13----------------------------13--------
E|--8--------------------------------------8----11----------------------------------------11--



E|-----------------------------------------------------------------
B|-----------------------------------------------------------------
G|-----------------------------------------------------------------
D|-----------------------------------------------------------------
A|-----------2----3------------------------------------------------
E|--5------------------5----0--------1--------1--------1--------1--



E|-----------------------------------------------------------------
B|-----------------------------------------------------------------
G|-----------------------------------------------------------------
D|-----------------------------------------------------------------
A|-----------2----3------------------------------------------------
E|--5------------------5----0--------8--------8--------8--------8--



E|-----------------------------------------------------------------
B|-----------------------------------------------------------------
G|-----------------------------------------------------------------
D|-----------------------------------------------------------------
A|-----------2----3------------------------------------------------
E|--5------------------5----0--------1--------1--------1--------1--



E|--------------------------------------------------------------------
B|--------------------------------------------------------------------
G|--------------------------------------------------------------------
D|--------------------------------------------------------------------
A|-----------2----3---------------------------------------------------
E|--5------------------5----0--------1--------------1--------1--------



E|--------------------------------------------------------------------------------
B|--------------------------------------------------------------------------------
G|--------------------------------------------------------------------------------
D|------------------------------------------------------------------------7----7--
A|--------------------------------------------------------------------------------
E|--5----5----5----5----5----5----5----5----1----1----1----1----8----8------------



E|--------------------------------------------------------------------------------
B|--------------------------------------------------------------------------------
G|--------------------------------------------------------------------------------
D|--------------------------------------------------------------------------------
A|------------------------------------------------------------------------3----3--
E|--5----5----5----5----5----5----5----5----8----8----8----8----8----8------------



E|--------------------------------------------------------------------------------
B|--------------------------------------------------------------------------------
G|--------------------------------------------------------------------------------
D|------------------------------------------------------------------------7----7--
A|--------------------------------------------------------------------------------
E|--5----5----5----5----5----5----5----5----1----1----1----1----8----8------------



E|------------------------------------------------------------------------------------
B|------------------------------------------------------------------------------------
G|------------------------------------------------------------------------------------
D|----------------------------------------------------------------------------4----4--
A|------------------------------------------------------------------------------------
E|--8----8----8----8----8----8----8----8----11----11----11----11----8----8------------
http://www.guitartabcreator.com
Guitar Tab Creator is intended to store guitar tab created through the tool. It currently does not support in-line text editing. Any text you place in here will be lost. If you need to comment on your tab, please use the "Tab Notes" section located below.